  0
SECTION
  2
HEADER
  9
$ACADVER
  1
AC1014
  9
$ACADMAINTVER
 70
     9
  9
$DWGCODEPAGE
  3
ANSI_932
  9
$INSBASE
 10
0.0
 20
0.0
 30
0.0
  9
$EXTMIN
 10
-0.0768817058119566
 20
-0.0543663491091593
 30
-0.0000000000000053
  9
$EXTMAX
 10
1260.076921312764
 20
891.0543943568839
 30
0.0000000000000099
  9
$LIMMIN
 10
0.0
 20
0.0
  9
$LIMMAX
 10
1260.0
 20
891.0
  9
$ORTHOMODE
 70
     1
  9
$REGENMODE
 70
     1
  9
$FILLMODE
 70
     1
  9
$QTEXTMODE
 70
     0
  9
$MIRRTEXT
 70
     1
  9
$DRAGMODE
 70
     2
  9
$LTSCALE
 40
2.0
  9
$OSMODE
 70
    39
  9
$ATTMODE
 70
     1
  9
$TEXTSIZE
 40
0.2
  9
$TRACEWID
 40
0.05
  9
$TEXTSTYLE
  7
STANDARD
  9
$CLAYER
  8
0
  9
$CELTYPE
  6
CONTINUOUS
  9
$CECOLOR
 62
   256
  9
$CELTSCALE
 40
1.0
  9
$DELOBJ
 70
     1
  9
$DISPSILH
 70
     0
  9
$DIMSCALE
 40
25.4
  9
$DIMASZ
 40
0.18
  9
$DIMEXO
 40
0.0625
  9
$DIMDLI
 40
0.38
  9
$DIMRND
 40
0.0
  9
$DIMDLE
 40
0.0
  9
$DIMEXE
 40
0.18
  9
$DIMTP
 40
0.0
  9
$DIMTM
 40
0.0
  9
$DIMTXT
 40
0.18
  9
$DIMCEN
 40
0.09
  9
$DIMTSZ
 40
0.0
  9
$DIMTOL
 70
     0
  9
$DIMLIM
 70
     0
  9
$DIMTIH
 70
     1
  9
$DIMTOH
 70
     1
  9
$DIMSE1
 70
     0
  9
$DIMSE2
 70
     0
  9
$DIMTAD
 70
     1
  9
$DIMZIN
 70
     0
  9
$DIMBLK
  1

  9
$DIMASO
 70
     1
  9
$DIMSHO
 70
     1
  9
$DIMPOST
  1

  9
$DIMAPOST
  1

  9
$DIMALT
 70
     0
  9
$DIMALTD
 70
     2
  9
$DIMALTF
 40
0.03937
  9
$DIMLFAC
 40
1.0
  9
$DIMTOFL
 70
     0
  9
$DIMTVP
 40
0.0
  9
$DIMTIX
 70
     0
  9
$DIMSOXD
 70
     0
  9
$DIMSAH
 70
     0
  9
$DIMBLK1
  1

  9
$DIMBLK2
  1

  9
$DIMSTYLE
  2
STANDARD
  9
$DIMCLRD
 70
     0
  9
$DIMCLRE
 70
     0
  9
$DIMCLRT
 70
     0
  9
$DIMTFAC
 40
1.0
  9
$DIMGAP
 40
0.09
  9
$DIMJUST
 70
     0
  9
$DIMSD1
 70
     0
  9
$DIMSD2
 70
     0
  9
$DIMTOLJ
 70
     1
  9
$DIMTZIN
 70
     0
  9
$DIMALTZ
 70
     0
  9
$DIMALTTZ
 70
     0
  9
$DIMFIT
 70
     3
  9
$DIMUPT
 70
     0
  9
$DIMUNIT
 70
     2
  9
$DIMDEC
 70
     4
  9
$DIMTDEC
 70
     4
  9
$DIMALTU
 70
     2
  9
$DIMALTTD
 70
     2
  9
$DIMTXSTY
  7
STANDARD
  9
$DIMAUNIT
 70
     0
  9
$LUNITS
 70
     2
  9
$LUPREC
 70
     4
  9
$SKETCHINC
 40
0.1
  9
$FILLETRAD
 40
0.0
  9
$AUNITS
 70
     0
  9
$AUPREC
 70
     0
  9
$MENU
  1
.
  9
$ELEVATION
 40
0.0
  9
$PELEVATION
 40
0.0
  9
$THICKNESS
 40
0.0
  9
$LIMCHECK
 70
     0
  9
$BLIPMODE
 70
     0
  9
$CHAMFERA
 40
0.0
  9
$CHAMFERB
 40
0.0
  9
$CHAMFERC
 40
0.0
  9
$CHAMFERD
 40
0.0
  9
$SKPOLY
 70
     0
  9
$TDCREATE
 40
2452265.000000000
  9
$TDUPDATE
 40
2454239.008885810
  9
$TDINDWG
 40
0.1241653704
  9
$TDUSRTIMER
 40
0.1241653704
  9
$USRTIMER
 70
     1
  9
$ANGBASE
 50
0.0
  9
$ANGDIR
 70
     0
  9
$PDMODE
 70
     0
  9
$PDSIZE
 40
0.0
  9
$PLINEWID
 40
0.0
  9
$COORDS
 70
     1
  9
$SPLFRAME
 70
     0
  9
$SPLINETYPE
 70
     6
  9
$SPLINESEGS
 70
     8
  9
$ATTDIA
 70
     0
  9
$ATTREQ
 70
     1
  9
$HANDLING
 70
 10241
  9
$HANDSEED
  5
106C
  9
$SURFTAB1
 70
     6
  9
$SURFTAB2
 70
     6
  9
$SURFTYPE
 70
     6
  9
$SURFU
 70
     6
  9
$SURFV
 70
     6
  9
$UCSNAME
  2

  9
$UCSORG
 10
0.0
 20
0.0
 30
0.0
  9
$UCSXDIR
 10
1.0
 20
0.0
 30
0.0
  9
$UCSYDIR
 10
0.0
 20
1.0
 30
0.0
  9
$PUCSNAME
  2

  9
$PUCSORG
 10
0.0
 20
0.0
 30
0.0
  9
$PUCSXDIR
 10
1.0
 20
0.0
 30
0.0
  9
$PUCSYDIR
 10
0.0
 20
1.0
 30
0.0
  9
$USERI1
 70
     0
  9
$USERI2
 70
     0
  9
$USERI3
 70
     0
  9
$USERI4
 70
     0
  9
$USERI5
 70
     0
  9
$USERR1
 40
0.0
  9
$USERR2
 40
0.0
  9
$USERR3
 40
0.0
  9
$USERR4
 40
0.0
  9
$USERR5
 40
0.0
  9
$WORLDVIEW
 70
     1
  9
$SHADEDGE
 70
     3
  9
$SHADEDIF
 70
    70
  9
$TILEMODE
 70
     1
  9
$MAXACTVP
 70
    64
  9
$PINSBASE
 10
0.0
 20
0.0
 30
0.0
  9
$PLIMCHECK
 70
     0
  9
$PEXTMIN
 10
1.000000000000000E+20
 20
1.000000000000000E+20
 30
1.000000000000000E+20
  9
$PEXTMAX
 10
-1.000000000000000E+20
 20
-1.000000000000000E+20
 30
-1.000000000000000E+20
  9
$PLIMMIN
 10
0.0
 20
0.0
  9
$PLIMMAX
 10
12.0
 20
9.0
  9
$UNITMODE
 70
     0
  9
$VISRETAIN
 70
     1
  9
$PLINEGEN
 70
     0
  9
$PSLTSCALE
 70
     1
  9
$TREEDEPTH
 70
  3020
  9
$PICKSTYLE
 70
     1
  9
$CMLSTYLE
  2
STANDARD
  9
$CMLJUST
 70
     0
  9
$CMLSCALE
 40
1.0
  9
$PROXYGRAPHICS
 70
     1
  9
$MEASUREMENT
 70
     0
  0
ENDSEC
  0
SECTION
  2
CLASSES
  0
CLASS
  1
ACDBDICTIONARYWDFLT
  2
AcDbDictionaryWithDefault
  3
AutoCAD 2000
 90
        0
280
     0
281
     0
  0
CLASS
  1
ACDBPLACEHOLDER
  2
AcDbPlaceHolder
  3
AutoCAD 2000
 90
        0
280
     0
281
     0
  0
CLASS
  1
LAYOUT
  2
AcDbLayout
  3
AutoCAD 2000
 90
        0
280
     0
281
     0
  0
CLASS
  1
LONG_TRANSACTION
  2
AcDbLongTransaction
  3
AutoCAD 2000
 90
        0
280
     0
281
     0
  0
CLASS
  1
LWPOLYLINE
  2
AcDbPolyline
  3
AutoCAD 2000
 90
        0
280
     0
281
     1
  0
CLASS
  1
HATCH
  2
AcDbHatch
  3
AutoCAD 2000
 90
        0
280
     0
281
     1
  0
CLASS
  1
XRECORD
  2
AcDbXrecord
  3
AutoCAD 2000
 90
        0
280
     0
281
     0
  0
ENDSEC
  0
SECTION
  2
TABLES
  0
TABLE
  2
VPORT
  5
8
330
0
100
AcDbSymbolTable
 70
     2
  0
VPORT
  5
1047
330
8
100
AcDbSymbolTableRecord
100
AcDbViewportTableRecord
  2
*ACTIVE
 70
     0
 10
0.0
 20
0.0
 11
1.0
 21
1.0
 12
630.000019803476
 22
445.5000140038873
 13
0.0
 23
0.0
 14
1.0
 24
1.0
 15
0.0
 25
0.0
 16
0.0
 26
0.0
 36
1.0
 17
0.0
 27
0.0
 37
0.0
 40
901.8020658344649
 41
1.933867735470941
 42
50.0
 43
0.0
 44
0.0
 50
0.0
 51
0.0
 71
     0
 72
   100
 73
     1
 74
     1
 75
     0
 76
     0
 77
     0
 78
     0
  0
ENDTAB
  0
TABLE
  2
LTYPE
  5
5
330
0
100
AcDbSymbolTable
 70
     7
  0
LTYPE
  5
13
330
5
100
AcDbSymbolTableRecord
100
AcDbLinetypeTableRecord
  2
BYBLOCK
 70
     0
  3

 72
    65
 73
     0
 40
0.0
  0
LTYPE
  5
14
330
5
100
AcDbSymbolTableRecord
100
AcDbLinetypeTableRecord
  2
BYLAYER
 70
     0
  3

 72
    65
 73
     0
 40
0.0
  0
LTYPE
  5
15
330
5
100
AcDbSymbolTableRecord
100
AcDbLinetypeTableRecord
  2
CONTINUOUS
 70
     0
  3
Solid line
 72
    65
 73
     0
 40
0.0
  0
LTYPE
  5
22
330
5
100
AcDbSymbolTableRecord
100
AcDbLinetypeTableRecord
  2
DASHED
 70
     0
  3
__ __ __ __ __ __ __ __ __ __ __ __ __ __ __
 72
    65
 73
     2
 40
3.2
 49
2.0
 74
     0
 49
-1.199999999999999
 74
     0
  0
LTYPE
  5
23
330
5
100
AcDbSymbolTableRecord
100
AcDbLinetypeTableRecord
  2
CENTER
 70
     0
  3
____ _ ____ _ ____ _ ____ _ ____ _ ____ _ ____
 72
    65
 73
     4
 40
10.6
 49
7.0
 74
     0
 49
-1.199999999999999
 74
     0
 49
1.199999999999999
 74
     0
 49
-1.199999999999999
 74
     0
  0
LTYPE
  5
24
330
5
100
AcDbSymbolTableRecord
100
AcDbLinetypeTableRecord
  2
HIDDEN
 70
     0
  3
_ _ _ _ _ _ _ _ _ _ _ _ _ _ _ _ _ _ _ _ _ _ _
 72
    65
 73
     2
 40
6.4
 49
2.6
 74
     0
 49
-3.799999999999999
 74
     0
  0
LTYPE
  5
25
330
5
100
AcDbSymbolTableRecord
100
AcDbLinetypeTableRecord
  2
PHANTOM
 70
     0
  3
_____ _ _ _____ _ _ _____ _ _ _____ _ _ _____
 72
    65
 73
     6
 40
12.27999999999999
 49
8.38
 74
     0
 49
-1.199999999999999
 74
     0
 49
0.5
 74
     0
 49
-0.5
 74
     0
 49
0.5
 74
     0
 49
-1.199999999999999
 74
     0
  0
LTYPE
  5
26
330
5
100
AcDbSymbolTableRecord
100
AcDbLinetypeTableRecord
  2
DOT
 70
     0
  3
...............................................
 72
    65
 73
     2
 40
0.6
 49
0.3
 74
     0
 49
-0.3
 74
     0
  0
LTYPE
  5
27
330
5
100
AcDbSymbolTableRecord
100
AcDbLinetypeTableRecord
  2
DASHDOT
 70
     0
  3
__ . __ . __ . __ . __ . __ . __ . __ . __ . __
 72
    65
 73
     4
 40
16.0
 49
10.0
 74
     0
 49
-2.0
 74
     0
 49
2.0
 74
     0
 49
-2.0
 74
     0
  0
ENDTAB
  0
TABLE
  2
LAYER
  5
2
330
0
100
AcDbSymbolTable
 70
     8
  0
LAYER
  5
10
330
2
100
AcDbSymbolTableRecord
100
AcDbLayerTableRecord
  2
0
 70
     0
 62
     7
  6
CONTINUOUS
  0
LAYER
  5
28
330
2
100
AcDbSymbolTableRecord
100
AcDbLayerTableRecord
  2
1
 70
     0
 62
     7
  6
CONTINUOUS
  0
LAYER
  5
29
330
2
100
AcDbSymbolTableRecord
100
AcDbLayerTableRecord
  2
2
 70
     0
 62
     7
  6
CONTINUOUS
  0
LAYER
  5
2A
330
2
100
AcDbSymbolTableRecord
100
AcDbLayerTableRecord
  2
3
 70
     0
 62
     7
  6
CONTINUOUS
  0
LAYER
  5
2B
330
2
100
AcDbSymbolTableRecord
100
AcDbLayerTableRecord
  2
4
 70
     0
 62
     7
  6
CONTINUOUS
  0
LAYER
  5
2C
330
2
100
AcDbSymbolTableRecord
100
AcDbLayerTableRecord
  2
11
 70
     0
 62
     7
  6
CONTINUOUS
  0
LAYER
  5
2D
330
2
100
AcDbSymbolTableRecord
100
AcDbLayerTableRecord
  2
25
 70
     0
 62
     7
  6
CONTINUOUS
  0
LAYER
  5
2E
330
2
100
AcDbSymbolTableRecord
100
AcDbLayerTableRecord
  2
29
 70
     0
 62
     7
  6
CONTINUOUS
  0
ENDTAB
  0
TABLE
  2
STYLE
  5
3
330
0
100
AcDbSymbolTable
 70
     4
  0
STYLE
  5
11
330
3
100
AcDbSymbolTableRecord
100
AcDbTextStyleTableRecord
  2
STANDARD
 70
     0
 40
0.0
 41
1.0
 50
0.0
 71
     0
 42
0.2
  3
romans.shx
  4
bigfont.shx
  0
STYLE
  5
8EC
330
3
100
AcDbSymbolTableRecord
100
AcDbTextStyleTableRecord
  2
ｽﾀｲﾙ1
 70
     0
 40
0.0
 41
1.0
 50
0.0
 71
     0
 42
0.2
  3
MS PMincho.ttf
  4

1001
ACAD
1000
MS PMincho
1071
    32786
  0
STYLE
  5
8ED
330
3
100
AcDbSymbolTableRecord
100
AcDbTextStyleTableRecord
  2
ｽﾀｲﾙ2
 70
     0
 40
0.0
 41
1.0
 50
0.0
 71
     0
 42
0.2
  3
MS PGothic.ttf
  4

1001
ACAD
1000
MS PGothic
1071
    32818
  0
STYLE
  5
DAF
330
3
100
AcDbSymbolTableRecord
100
AcDbTextStyleTableRecord
  2
ｽﾀｲﾙ3
 70
     0
 40
0.0
 41
1.0
 50
0.0
 71
     0
 42
0.2
  3
romant.shx
  4
bigfont.shx
  0
ENDTAB
  0
TABLE
  2
VIEW
  5
6
330
0
100
AcDbSymbolTable
 70
     0
  0
ENDTAB
  0
TABLE
  2
UCS
  5
7
330
0
100
AcDbSymbolTable
 70
     0
  0
ENDTAB
  0
TABLE
  2
APPID
  5
9
330
0
100
AcDbSymbolTable
 70
     1
  0
APPID
  5
12
330
9
100
AcDbSymbolTableRecord
100
AcDbRegAppTableRecord
  2
ACAD
 70
     0
  0
ENDTAB
  0
TABLE
  2
DIMSTYLE
  5
A
330
0
100
AcDbSymbolTable
 70
     1
  0
DIMSTYLE
105
800
330
A
100
AcDbSymbolTableRecord
100
AcDbDimStyleTableRecord
  2
STANDARD
 70
     0
  3

  4

  5

  6

  7

 40
1.0
 41
0.18
 42
0.0625
 43
0.38
 44
0.18
 45
0.0
 46
0.0
 47
0.0
 48
0.0
140
0.18
141
0.09
142
0.0
143
25.4
144
1.0
145
0.0
146
1.0
147
0.09
 71
     0
 72
     0
 73
     1
 74
     1
 75
     0
 76
     0
 77
     0
 78
     0
170
     0
171
     2
172
     0
173
     0
174
     0
175
     0
176
     0
177
     0
178
     0
270
     2
271
     4
272
     4
273
     2
274
     2
340
11
275
     0
280
     0
281
     0
282
     0
283
     1
284
     0
285
     0
286
     0
287
     3
288
     0
  0
ENDTAB
  0
TABLE
  2
BLOCK_RECORD
  5
1
330
0
100
AcDbSymbolTable
 70
     1
  0
BLOCK_RECORD
  5
1E
102
{ACAD_XDICTIONARY
360
106A
102
}
330
1
100
AcDbSymbolTableRecord
100
AcDbBlockTableRecord
  2
*MODEL_SPACE
  0
BLOCK_RECORD
  5
1A
102
{ACAD_XDICTIONARY
360
1068
102
}
330
1
100
AcDbSymbolTableRecord
100
AcDbBlockTableRecord
  2
*PAPER_SPACE
  0
BLOCK_RECORD
  5
EC6
330
1
100
AcDbSymbolTableRecord
100
AcDbBlockTableRecord
  2
A$C66D57819
  0
ENDTAB
  0
ENDSEC
  0
SECTION
  2
BLOCKS
  0
BLOCK
  5
1F
330
1E
100
AcDbEntity
  8
0
100
AcDbBlockBegin
  2
*MODEL_SPACE
 70
     0
 10
0.0
 20
0.0
 30
0.0
  3
*MODEL_SPACE
  1

  0
ENDBLK
  5
20
330
1E
100
AcDbEntity
  8
0
100
AcDbBlockEnd
  0
BLOCK
  5
1B
330
1A
100
AcDbEntity
 67
     1
  8
0
100
AcDbBlockBegin
  2
*PAPER_SPACE
 70
     0
 10
0.0
 20
0.0
 30
0.0
  3
*PAPER_SPACE
  1

  0
ENDBLK
  5
1C
330
1A
100
AcDbEntity
 67
     1
  8
0
100
AcDbBlockEnd
  0
BLOCK
  5
ED9
330
EC6
100
AcDbEntity
  8
0
100
AcDbBlockBegin
  2
A$C66D57819
 70
     0
 10
0.0
 20
0.0
 30
0.0
  3
A$C66D57819
  1

  0
TEXT
  5
EC7
330
EC6
100
AcDbEntity
  8
2
100
AcDbText
 10
-51.2069882342339
 20
-50.86139486881553
 30
0.0
 40
12.0
  1
注）品番の 10  11  15  16  は本体に含まれません。
 41
0.9
100
AcDbText
  0
TEXT
  5
EC8
330
EC6
100
AcDbEntity
  8
2
100
AcDbText
 10
-51.2069882342339
 20
-30.20015359786725
 30
0.0
 40
12.0
  1
注）品番の16 は呼び径（配管口径）20ｍｍと13ｍｍの2種類有り。
 41
0.9
100
AcDbText
  0
ARC
  5
EC9
330
EC6
100
AcDbEntity
  8
2
100
AcDbCircle
 10
94.18018920429517
 20
-44.42381719997058
 30
0.0
 40
9.0
100
AcDbArc
 50
90.0
 51
270.0
  0
ARC
  5
ECA
330
EC6
100
AcDbEntity
  8
2
100
AcDbCircle
 10
35.03985425103769
 20
-44.42381719997058
 30
0.0
 40
9.0
100
AcDbArc
 50
270.0
 51
90.0
  0
ARC
  5
ECB
330
EC6
100
AcDbEntity
  8
2
100
AcDbCircle
 10
27.03985425103769
 20
-44.42381719997058
 30
0.0
 40
9.0
100
AcDbArc
 50
90.0
 51
270.0
  0
LINE
  5
ECC
330
EC6
100
AcDbEntity
  8
2
100
AcDbLine
 10
27.03985425103769
 20
-53.42381719997058
 30
0.0
 11
35.03985425103769
 21
-53.42381719997058
 31
0.0
  0
LINE
  5
ECD
330
EC6
100
AcDbEntity
  8
2
100
AcDbLine
 10
27.03985425103769
 20
-35.42381719997058
 30
0.0
 11
35.03985425103769
 21
-35.42381719997058
 31
0.0
  0
LINE
  5
ECE
330
EC6
100
AcDbEntity
  8
2
100
AcDbLine
 10
59.98001913812027
 20
-35.42381719997058
 30
0.0
 11
67.98001913812027
 21
-35.42381719997058
 31
0.0
  0
LINE
  5
ECF
330
EC6
100
AcDbEntity
  8
2
100
AcDbLine
 10
59.98001913812027
 20
-53.42381719997058
 30
0.0
 11
67.98001913812027
 21
-53.42381719997058
 31
0.0
  0
ARC
  5
ED0
330
EC6
100
AcDbEntity
  8
2
100
AcDbCircle
 10
59.98001913812027
 20
-44.42381719997058
 30
0.0
 40
9.0
100
AcDbArc
 50
90.0
 51
270.0
  0
ARC
  5
ED1
330
EC6
100
AcDbEntity
  8
2
100
AcDbCircle
 10
67.98001913812027
 20
-44.42381719997058
 30
0.0
 40
9.0
100
AcDbArc
 50
270.0
 51
90.0
  0
ARC
  5
ED2
330
EC6
100
AcDbEntity
  8
2
100
AcDbCircle
 10
135.8403570508601
 20
-44.42381719997058
 30
0.0
 40
9.0
100
AcDbArc
 50
270.0
 51
90.0
  0
ARC
  5
ED3
330
EC6
100
AcDbEntity
  8
2
100
AcDbCircle
 10
102.1801892042951
 20
-44.42381719997058
 30
0.0
 40
9.0
100
AcDbArc
 50
270.0
 51
90.0
  0
LINE
  5
ED4
330
EC6
100
AcDbEntity
  8
2
100
AcDbLine
 10
94.18018920429517
 20
-53.42381719997058
 30
0.0
 11
102.1801892042951
 21
-53.42381719997058
 31
0.0
  0
LINE
  5
ED5
330
EC6
100
AcDbEntity
  8
2
100
AcDbLine
 10
94.18018920429517
 20
-35.42381719997058
 30
0.0
 11
102.1801892042951
 21
-35.42381719997058
 31
0.0
  0
ARC
  5
ED6
330
EC6
100
AcDbEntity
  8
2
100
AcDbCircle
 10
127.8403570508601
 20
-44.42381719997058
 30
0.0
 40
9.0
100
AcDbArc
 50
90.0
 51
270.0
  0
LINE
  5
ED7
330
EC6
100
AcDbEntity
  8
2
100
AcDbLine
 10
127.8403570508601
 20
-53.42381719997058
 30
0.0
 11
135.8403570508601
 21
-53.42381719997058
 31
0.0
  0
LINE
  5
ED8
330
EC6
100
AcDbEntity
  8
2
100
AcDbLine
 10
127.8403570508601
 20
-35.42381719997058
 30
0.0
 11
135.8403570508601
 21
-35.42381719997058
 31
0.0
  0
ENDBLK
  5
EDA
330
EC6
100
AcDbEntity
  8
0
100
AcDbBlockEnd
  0
ENDSEC
  0
SECTION
  2
ENTITIES
  0
LINE
  5
31
330
1E
100
AcDbEntity
  8
1
100
AcDbLine
 10
336.0
 20
553.5
 30
0.0
 11
489.0
 21
553.5
 31
0.0
  0
LINE
  5
32
330
1E
100
AcDbEntity
  8
1
100
AcDbLine
 10
351.0
 20
563.4999999999999
 30
0.0
 11
389.0
 21
563.4999999999999
 31
0.0
  0
ARC
  5
33
330
1E
100
AcDbEntity
  8
1
100
AcDbCircle
 10
351.0
 20
553.5
 30
0.0
 40
10.0
100
AcDbArc
 50
90.0
 51
180.0
  0
ARC
  5
34
330
1E
100
AcDbEntity
  8
1
100
AcDbCircle
 10
389.0
 20
553.5
 30
0.0
 40
10.0
100
AcDbArc
 50
0.0
 51
90.0
  0
LINE
  5
35
330
1E
100
AcDbEntity
  8
1
100
AcDbLine
 10
348.4999999999999
 20
567.4999999999999
 30
0.0
 11
391.5
 21
567.4999999999999
 31
0.0
  0
LINE
  5
36
330
1E
100
AcDbEntity
  8
1
100
AcDbLine
 10
348.4999999999999
 20
574.5
 30
0.0
 11
391.5
 21
574.5
 31
0.0
  0
LINE
  5
37
330
1E
100
AcDbEntity
  8
1
100
AcDbLine
 10
350.0
 20
582.5
 30
0.0
 11
350.0
 21
576.0
 31
0.0
  0
LINE
  5
38
330
1E
100
AcDbEntity
  8
1
100
AcDbLine
 10
348.4999999999999
 20
574.5
 30
0.0
 11
348.4999999999999
 21
567.4999999999999
 31
0.0
  0
LINE
  5
39
330
1E
100
AcDbEntity
  8
1
100
AcDbLine
 10
391.5
 20
574.5
 30
0.0
 11
391.5
 21
567.4999999999999
 31
0.0
  0
LINE
  5
3A
330
1E
100
AcDbEntity
  8
1
100
AcDbLine
 10
352.4999999999999
 20
609.4999999999999
 30
0.0
 11
387.5
 21
609.4999999999999
 31
0.0
  0
LINE
  5
3B
330
1E
100
AcDbEntity
  8
1
100
AcDbLine
 10
352.4999999999999
 20
603.5
 30
0.0
 11
387.5
 21
603.5
 31
0.0
  0
LINE
  5
3C
330
1E
100
AcDbEntity
  8
1
100
AcDbLine
 10
387.5
 20
609.4999999999999
 30
0.0
 11
387.5
 21
603.5
 31
0.0
  0
LINE
  5
3D
330
1E
100
AcDbEntity
  8
1
100
AcDbLine
 10
352.4999999999999
 20
609.4999999999999
 30
0.0
 11
352.4999999999999
 21
603.5
 31
0.0
  0
LINE
  5
3E
330
1E
100
AcDbEntity
  8
1
100
AcDbLine
 10
354.0
 20
602.0
 30
0.0
 11
354.0
 21
596.4999999999999
 31
0.0
  0
LINE
  5
3F
330
1E
100
AcDbEntity
  8
1
100
AcDbLine
 10
354.0
 20
596.4999999999999
 30
0.0
 11
350.0
 21
582.5
 31
0.0
  0
LINE
  5
40
330
1E
100
AcDbEntity
  8
1
100
AcDbLine
 10
386.0
 20
596.4999999999999
 30
0.0
 11
390.0
 21
582.5
 31
0.0
  0
ARC
  5
41
330
1E
100
AcDbEntity
  8
1
100
AcDbCircle
 10
348.4999999999999
 20
576.0
 30
0.0
 40
1.5
100
AcDbArc
 50
270.0
 51
0.0
  0
ARC
  5
42
330
1E
100
AcDbEntity
  8
1
100
AcDbCircle
 10
352.4999999999999
 20
602.0
 30
0.0
 40
1.5
100
AcDbArc
 50
0.0
 51
90.0
  0
ARC
  5
43
330
1E
100
AcDbEntity
  8
1
100
AcDbCircle
 10
387.5
 20
602.0
 30
0.0
 40
1.5
100
AcDbArc
 50
90.0
 51
180.0
  0
LINE
  5
44
330
1E
100
AcDbEntity
  8
1
100
AcDbLine
 10
386.0
 20
602.0
 30
0.0
 11
386.0
 21
596.4999999999999
 31
0.0
  0
LINE
  5
45
330
1E
100
AcDbEntity
  8
1
100
AcDbLine
 10
390.0
 20
582.5
 30
0.0
 11
390.0
 21
576.0
 31
0.0
  0
ARC
  5
46
330
1E
100
AcDbEntity
  8
1
100
AcDbCircle
 10
391.5
 20
576.0
 30
0.0
 40
1.5
100
AcDbArc
 50
180.0
 51
270.0
  0
LINE
  5
48
330
1E
100
AcDbEntity
  8
1
100
AcDbLine
 10
351.0
 20
567.4999999999999
 30
0.0
 11
389.0
 21
567.4999999999999
 31
0.0
  0
LINE
  5
53
330
1E
100
AcDbEntity
  8
1
100
AcDbLine
 10
358.375
 20
614.5
 30
0.0
 11
381.625
 21
614.5
 31
0.0
  0
LINE
  5
54
330
1E
100
AcDbEntity
  8
1
100
AcDbLine
 10
358.375
 20
620.5
 30
0.0
 11
381.625
 21
620.5
 31
0.0
  0
LINE
  5
55
330
1E
100
AcDbEntity
  8
1
100
AcDbLine
 10
385.5
 20
615.5
 30
0.0
 11
385.5
 21
619.5
 31
0.0
  0
LINE
  5
56
330
1E
100
AcDbEntity
  8
1
100
AcDbLine
 10
354.4999999999999
 20
615.5
 30
0.0
 11
354.4999999999999
 21
619.5
 31
0.0
  0
ARC
  5
57
330
1E
100
AcDbEntity
  8
1
100
AcDbCircle
 10
370.0
 20
589.9687499999999
 30
0.0
 40
30.53125
100
AcDbArc
 50
75.295241
 51
104.704759
  0
ARC
  5
58
330
1E
100
AcDbEntity
  8
1
100
AcDbCircle
 10
381.625
 20
612.4921879999999
 30
0.0
 40
8.007813
100
AcDbArc
 50
61.05941200000001
 51
118.940588
  0
ARC
  5
59
330
1E
100
AcDbEntity
  8
1
100
AcDbCircle
 10
358.375
 20
612.4921879999999
 30
0.0
 40
8.007813
100
AcDbArc
 50
61.05941200000001
 51
118.940588
  0
ARC
  5
5A
330
1E
100
AcDbEntity
  8
1
100
AcDbCircle
 10
381.625
 20
622.5078129999999
 30
0.0
 40
8.007813
100
AcDbArc
 50
241.059412
 51
298.9405879999999
  0
ARC
  5
5B
330
1E
100
AcDbEntity
  8
1
100
AcDbCircle
 10
370.0
 20
645.0312499999999
 30
0.0
 40
30.53125
100
AcDbArc
 50
255.2952409999999
 51
284.7047589999999
  0
ARC
  5
5C
330
1E
100
AcDbEntity
  8
1
100
AcDbCircle
 10
358.375
 20
622.5078129999999
 30
0.0
 40
8.007813
100
AcDbArc
 50
241.059412
 51
298.9405879999999
  0
LINE
  5
5D
330
1E
100
AcDbEntity
  8
1
100
AcDbLine
 10
362.25
 20
619.5
 30
0.0
 11
362.25
 21
615.5
 31
0.0
  0
LINE
  5
5E
330
1E
100
AcDbEntity
  8
1
100
AcDbLine
 10
377.7499999999999
 20
619.5
 30
0.0
 11
377.7499999999999
 21
615.5
 31
0.0
  0
LINE
  5
5F
330
1E
100
AcDbEntity
  8
1
100
AcDbLine
 10
389.0
 20
563.4999999999999
 30
0.0
 11
389.0
 21
567.4999999999999
 31
0.0
  0
LINE
  5
60
330
1E
100
AcDbEntity
  8
1
100
AcDbLine
 10
351.0
 20
563.4999999999999
 30
0.0
 11
351.0
 21
567.4999999999999
 31
0.0
  0
LINE
  5
63
330
1E
100
AcDbEntity
  8
1
100
AcDbLine
 10
357.0
 20
614.6189320000001
 30
0.0
 11
357.0
 21
609.618932
 31
0.0
  0
LINE
  5
64
330
1E
100
AcDbEntity
  8
1
100
AcDbLine
 10
383.0
 20
614.6189320000001
 30
0.0
 11
383.0
 21
609.618932
 31
0.0
  0
LINE
  5
65
330
1E
100
AcDbEntity
  8
1
100
AcDbLine
 10
357.0
 20
620.3810679999999
 30
0.0
 11
357.0
 21
623.3810679999999
 31
0.0
  0
LINE
  5
66
330
1E
100
AcDbEntity
  8
1
100
AcDbLine
 10
383.0
 20
620.3810679999999
 30
0.0
 11
383.0
 21
623.3810679999999
 31
0.0
  0
LINE
  5
67
330
1E
100
AcDbEntity
  8
1
100
AcDbLine
 10
355.0
 20
623.5
 30
0.0
 11
385.0
 21
623.5
 31
0.0
  0
LINE
  5
68
330
1E
100
AcDbEntity
  8
1
100
AcDbLine
 10
355.0
 20
637.5
 30
0.0
 11
385.0
 21
637.5
 31
0.0
  0
CIRCLE
  5
69
330
1E
100
AcDbEntity
  8
1
100
AcDbCircle
 10
370.0
 20
630.4999999999999
 30
0.0
 40
6.5
  0
LWPOLYLINE
  5
6A
330
1E
100
AcDbEntity
  8
1
100
AcDbPolyline
 90
       29
 70
     1
 43
0.0
 10
357.5
 20
637.0
 10
357.0
 20
636.933332
 10
356.4999999999999
 20
636.7290469999999
 10
356.0
 20
636.3728009999999
 10
355.5
 20
635.834237
 10
355.0
 20
635.049052
 10
354.4999999999999
 20
633.848012
 10
354.0
 20
630.4999999999999
 10
354.4999999999999
 20
627.1519879999999
 10
355.0
 20
625.950948
 10
355.5
 20
625.1657629999999
 10
356.0
 20
624.627199
 10
356.4999999999999
 20
624.270953
 10
357.0
 20
624.0666679999999
 10
357.5
 20
624.0
 10
358.0
 20
624.0666679999999
 10
358.4999999999999
 20
624.270953
 10
359.0
 20
624.627199
 10
359.5
 20
625.1657629999999
 10
360.0
 20
625.950948
 10
360.4999999999999
 20
627.1519879999999
 10
361.0
 20
630.4999999999999
 10
360.4999999999999
 20
633.848012
 10
360.0
 20
635.049052
 10
359.5
 20
635.834237
 10
359.0
 20
636.3728009999999
 10
358.4999999999999
 20
636.7290469999999
 10
358.0
 20
636.933332
 10
357.5
 20
637.0
  0
ARC
  5
89
330
1E
100
AcDbEntity
  8
1
100
AcDbCircle
 10
379.0
 20
630.4999999999999
 30
0.0
 40
25.0
100
AcDbArc
 50
163.7397949999999
 51
196.260205
  0
LWPOLYLINE
  5
8A
330
1E
100
AcDbEntity
  8
1
100
AcDbPolyline
 90
       29
 70
     1
 43
0.0
 10
382.5
 20
637.0
 10
382.0
 20
636.933332
 10
381.4999999999999
 20
636.7290469999999
 10
381.0
 20
636.3728009999999
 10
380.5
 20
635.834237
 10
380.0
 20
635.049052
 10
379.4999999999999
 20
633.848012
 10
379.0
 20
630.4999999999999
 10
379.4999999999999
 20
627.1519879999999
 10
380.0
 20
625.950948
 10
380.5
 20
625.1657629999999
 10
381.0
 20
624.627199
 10
381.4999999999999
 20
624.270953
 10
382.0
 20
624.0666679999999
 10
382.5
 20
624.0
 10
383.0
 20
624.0666679999999
 10
383.4999999999999
 20
624.270953
 10
384.0
 20
624.627199
 10
384.5
 20
625.1657629999999
 10
385.0
 20
625.950948
 10
385.5
 20
627.1519879999999
 10
386.0
 20
630.4999999999999
 10
385.5
 20
633.848012
 10
385.0
 20
635.049052
 10
384.5
 20
635.834237
 10
384.0
 20
636.3728009999999
 10
383.4999999999999
 20
636.7290469999999
 10
383.0
 20
636.933332
 10
382.5
 20
637.0
  0
ARC
  5
A9
330
1E
100
AcDbEntity
  8
1
100
AcDbCircle
 10
361.0
 20
630.4999999999999
 30
0.0
 40
25.0
100
AcDbArc
 50
343.739795
 51
16.260205
  0
LINE
  5
AA
330
1E
100
AcDbEntity
  8
1
100
AcDbLine
 10
455.0
 20
563.4999999999999
 30
0.0
 11
417.0
 21
563.4999999999999
 31
0.0
  0
ARC
  5
AB
330
1E
100
AcDbEntity
  8
1
100
AcDbCircle
 10
455.0
 20
553.5
 30
0.0
 40
10.0
100
AcDbArc
 50
0.0
 51
90.0
  0
ARC
  5
AC
330
1E
100
AcDbEntity
  8
1
100
AcDbCircle
 10
417.0
 20
553.5
 30
0.0
 40
10.0
100
AcDbArc
 50
90.0
 51
180.0
  0
LINE
  5
AD
330
1E
100
AcDbEntity
  8
1
100
AcDbLine
 10
457.5
 20
567.4999999999999
 30
0.0
 11
414.5
 21
567.4999999999999
 31
0.0
  0
LINE
  5
AE
330
1E
100
AcDbEntity
  8
1
100
AcDbLine
 10
457.5
 20
574.5
 30
0.0
 11
414.5
 21
574.5
 31
0.0
  0
LINE
  5
AF
330
1E
100
AcDbEntity
  8
1
100
AcDbLine
 10
456.0
 20
582.5
 30
0.0
 11
456.0
 21
576.0
 31
0.0
  0
LINE
  5
B0
330
1E
100
AcDbEntity
  8
1
100
AcDbLine
 10
457.5
 20
574.5
 30
0.0
 11
457.5
 21
567.4999999999999
 31
0.0
  0
LINE
  5
B1
330
1E
100
AcDbEntity
  8
1
100
AcDbLine
 10
414.5
 20
574.5
 30
0.0
 11
414.5
 21
567.4999999999999
 31
0.0
  0
LINE
  5
B2
330
1E
100
AcDbEntity
  8
1
100
AcDbLine
 10
453.5
 20
609.4999999999999
 30
0.0
 11
418.5
 21
609.4999999999999
 31
0.0
  0
LINE
  5
B3
330
1E
100
AcDbEntity
  8
1
100
AcDbLine
 10
453.5
 20
603.5
 30
0.0
 11
418.5
 21
603.5
 31
0.0
  0
LINE
  5
B4
330
1E
100
AcDbEntity
  8
1
100
AcDbLine
 10
418.5
 20
609.4999999999999
 30
0.0
 11
418.5
 21
603.5
 31
0.0
  0
LINE
  5
B5
330
1E
100
AcDbEntity
  8
1
100
AcDbLine
 10
453.5
 20
609.4999999999999
 30
0.0
 11
453.5
 21
603.5
 31
0.0
  0
LINE
  5
B6
330
1E
100
AcDbEntity
  8
1
100
AcDbLine
 10
452.0
 20
602.0
 30
0.0
 11
452.0
 21
596.4999999999999
 31
0.0
  0
LINE
  5
B7
330
1E
100
AcDbEntity
  8
1
100
AcDbLine
 10
452.0
 20
596.4999999999999
 30
0.0
 11
456.0
 21
582.5
 31
0.0
  0
LINE
  5
B8
330
1E
100
AcDbEntity
  8
1
100
AcDbLine
 10
420.0
 20
596.4999999999999
 30
0.0
 11
416.0
 21
582.5
 31
0.0
  0
ARC
  5
B9
330
1E
100
AcDbEntity
  8
1
100
AcDbCircle
 10
457.5
 20
576.0
 30
0.0
 40
1.5
100
AcDbArc
 50
180.0
 51
270.0
  0
ARC
  5
BA
330
1E
100
AcDbEntity
  8
1
100
AcDbCircle
 10
453.5
 20
602.0
 30
0.0
 40
1.5
100
AcDbArc
 50
90.0
 51
180.0
  0
ARC
  5
BB
330
1E
100
AcDbEntity
  8
1
100
AcDbCircle
 10
418.5
 20
602.0
 30
0.0
 40
1.5
100
AcDbArc
 50
0.0
 51
90.0
  0
LINE
  5
BC
330
1E
100
AcDbEntity
  8
1
100
AcDbLine
 10
420.0
 20
602.0
 30
0.0
 11
420.0
 21
596.4999999999999
 31
0.0
  0
LINE
  5
BD
330
1E
100
AcDbEntity
  8
1
100
AcDbLine
 10
416.0
 20
582.5
 30
0.0
 11
416.0
 21
576.0
 31
0.0
  0
ARC
  5
BE
330
1E
100
AcDbEntity
  8
1
100
AcDbCircle
 10
414.5
 20
576.0
 30
0.0
 40
1.5
100
AcDbArc
 50
270.0
 51
0.0
  0
LINE
  5
C0
330
1E
100
AcDbEntity
  8
1
100
AcDbLine
 10
455.0
 20
567.4999999999999
 30
0.0
 11
417.0
 21
567.4999999999999
 31
0.0
  0
LINE
  5
CB
330
1E
100
AcDbEntity
  8
1
100
AcDbLine
 10
447.625
 20
614.5
 30
0.0
 11
424.375
 21
614.5
 31
0.0
  0
LINE
  5
CC
330
1E
100
AcDbEntity
  8
1
100
AcDbLine
 10
447.625
 20
620.5
 30
0.0
 11
424.375
 21
620.5
 31
0.0
  0
LINE
  5
CD
330
1E
100
AcDbEntity
  8
1
100
AcDbLine
 10
420.5
 20
615.5
 30
0.0
 11
420.5
 21
619.5
 31
0.0
  0
LINE
  5
CE
330
1E
100
AcDbEntity
  8
1
100
AcDbLine
 10
451.4999999999999
 20
615.5
 30
0.0
 11
451.4999999999999
 21
619.5
 31
0.0
  0
ARC
  5
CF
330
1E
100
AcDbEntity
  8
1
100
AcDbCircle
 10
436.0
 20
589.9687499999999
 30
0.0
 40
30.53125
100
AcDbArc
 50
75.295241
 51
104.704759
  0
ARC
  5
D0
330
1E
100
AcDbEntity
  8
1
100
AcDbCircle
 10
424.375
 20
612.4921879999999
 30
0.0
 40
8.007813
100
AcDbArc
 50
61.05941200000001
 51
118.940588
  0
ARC
  5
D1
330
1E
100
AcDbEntity
  8
1
100
AcDbCircle
 10
447.625
 20
612.4921879999999
 30
0.0
 40
8.007813
100
AcDbArc
 50
61.05941200000001
 51
118.940588
  0
ARC
  5
D2
330
1E
100
AcDbEntity
  8
1
100
AcDbCircle
 10
424.375
 20
622.5078129999999
 30
0.0
 40
8.007813
100
AcDbArc
 50
241.059412
 51
298.9405879999999
  0
ARC
  5
D3
330
1E
100
AcDbEntity
  8
1
100
AcDbCircle
 10
436.0
 20
645.0312499999999
 30
0.0
 40
30.53125
100
AcDbArc
 50
255.2952409999999
 51
284.7047589999999
  0
ARC
  5
D4
330
1E
100
AcDbEntity
  8
1
100
AcDbCircle
 10
447.625
 20
622.5078129999999
 30
0.0
 40
8.007813
100
AcDbArc
 50
241.059412
 51
298.9405879999999
  0
LINE
  5
D5
330
1E
100
AcDbEntity
  8
1
100
AcDbLine
 10
443.75
 20
619.5
 30
0.0
 11
443.75
 21
615.5
 31
0.0
  0
LINE
  5
D6
330
1E
100
AcDbEntity
  8
1
100
AcDbLine
 10
428.2499999999999
 20
619.5
 30
0.0
 11
428.2499999999999
 21
615.5
 31
0.0
  0
LINE
  5
D7
330
1E
100
AcDbEntity
  8
1
100
AcDbLine
 10
417.0
 20
563.4999999999999
 30
0.0
 11
417.0
 21
567.4999999999999
 31
0.0
  0
LINE
  5
D8
330
1E
100
AcDbEntity
  8
1
100
AcDbLine
 10
455.0
 20
563.4999999999999
 30
0.0
 11
455.0
 21
567.4999999999999
 31
0.0
  0
LINE
  5
DB
330
1E
100
AcDbEntity
  8
1
100
AcDbLine
 10
449.0
 20
614.6189320000001
 30
0.0
 11
449.0
 21
609.618932
 31
0.0
  0
LINE
  5
DC
330
1E
100
AcDbEntity
  8
1
100
AcDbLine
 10
423.0
 20
614.6189320000001
 30
0.0
 11
423.0
 21
609.618932
 31
0.0
  0
LINE
  5
DD
330
1E
100
AcDbEntity
  8
1
100
AcDbLine
 10
449.0
 20
620.3810679999999
 30
0.0
 11
449.0
 21
623.3810679999999
 31
0.0
  0
LINE
  5
DE
330
1E
100
AcDbEntity
  8
1
100
AcDbLine
 10
423.0
 20
620.3810679999999
 30
0.0
 11
423.0
 21
623.3810679999999
 31
0.0
  0
LINE
  5
DF
330
1E
100
AcDbEntity
  8
1
100
AcDbLine
 10
451.0
 20
623.5
 30
0.0
 11
421.0
 21
623.5
 31
0.0
  0
LINE
  5
E0
330
1E
100
AcDbEntity
  8
1
100
AcDbLine
 10
451.0
 20
637.5
 30
0.0
 11
421.0
 21
637.5
 31
0.0
  0
CIRCLE
  5
E1
330
1E
100
AcDbEntity
  8
1
100
AcDbCircle
 10
436.0
 20
630.4999999999999
 30
0.0
 40
6.5
  0
LWPOLYLINE
  5
E2
330
1E
100
AcDbEntity
  8
1
100
AcDbPolyline
 90
       29
 70
     1
 43
0.0
 10
448.5
 20
637.0
 10
448.0
 20
636.933332
 10
447.5
 20
636.7290469999999
 10
447.0
 20
636.3728009999999
 10
446.4999999999999
 20
635.834237
 10
446.0
 20
635.049052
 10
445.5
 20
633.848012
 10
445.0
 20
630.4999999999999
 10
445.5
 20
627.1519879999999
 10
446.0
 20
625.950948
 10
446.4999999999999
 20
625.1657629999999
 10
447.0
 20
624.627199
 10
447.5
 20
624.270953
 10
448.0
 20
624.0666679999999
 10
448.5
 20
624.0
 10
449.0
 20
624.0666679999999
 10
449.5
 20
624.270953
 10
450.0
 20
624.627199
 10
450.4999999999999
 20
625.1657629999999
 10
451.0
 20
625.950948
 10
451.4999999999999
 20
627.1519879999999
 10
452.0
 20
630.4999999999999
 10
451.4999999999999
 20
633.848012
 10
451.0
 20
635.049052
 10
450.4999999999999
 20
635.834237
 10
450.0
 20
636.3728009999999
 10
449.5
 20
636.7290469999999
 10
449.0
 20
636.933332
 10
448.5
 20
637.0
  0
ARC
  5
101
330
1E
100
AcDbEntity
  8
1
100
AcDbCircle
 10
427.0
 20
630.4999999999999
 30
0.0
 40
25.0
100
AcDbArc
 50
343.739795
 51
16.260205
  0
LWPOLYLINE
  5
102
330
1E
100
AcDbEntity
  8
1
100
AcDbPolyline
 90
       29
 70
     1
 43
0.0
 10
423.5
 20
637.0
 10
423.0
 20
636.933332
 10
422.4999999999999
 20
636.7290469999999
 10
422.0
 20
636.3728009999999
 10
421.4999999999999
 20
635.834237
 10
421.0
 20
635.049052
 10
420.5
 20
633.848012
 10
420.0
 20
630.4999999999999
 10
420.5
 20
627.1519879999999
 10
421.0
 20
625.950948
 10
421.4999999999999
 20
625.1657629999999
 10
422.0
 20
624.627199
 10
422.4999999999999
 20
624.270953
 10
423.0
 20
624.0666679999999
 10
423.5
 20
624.0
 10
424.0
 20
624.0666679999999
 10
424.5
 20
624.270953
 10
425.0
 20
624.627199
 10
425.4999999999999
 20
625.1657629999999
 10
426.0
 20
625.950948
 10
426.4999999999999
 20
627.1519879999999
 10
427.0
 20
630.4999999999999
 10
426.4999999999999
 20
633.848012
 10
426.0
 20
635.049052
 10
425.4999999999999
 20
635.834237
 10
425.0
 20
636.3728009999999
 10
424.5
 20
636.7290469999999
 10
424.0
 20
636.933332
 10
423.5
 20
637.0
  0
ARC
  5
121
330
1E
100
AcDbEntity
  8
1
100
AcDbCircle
 10
445.0
 20
630.4999999999999
 30
0.0
 40
25.0
100
AcDbArc
 50
163.7397949999999
 51
196.260205
  0
LINE
  5
122
330
1E
100
AcDbEntity
  8
1
100
AcDbLine
 10
444.7499999999999
 20
642.4999999999999
 30
0.0
 11
444.7499999999999
 21
644.5
 31
0.0
  0
LINE
  5
123
330
1E
100
AcDbEntity
  8
1
100
AcDbLine
 10
427.2499999999999
 20
642.4999999999999
 30
0.0
 11
427.2499999999999
 21
644.5
 31
0.0
  0
LINE
  5
124
330
1E
100
AcDbEntity
  8
1
100
AcDbLine
 10
444.7499999999999
 20
639.5
 30
0.0
 11
427.2499999999999
 21
639.5
 31
0.0
  0
LINE
  5
125
330
1E
100
AcDbEntity
  8
1
100
AcDbLine
 10
444.7499999999999
 20
642.4999999999999
 30
0.0
 11
427.2499999999999
 21
642.4999999999999
 31
0.0
  0
ARC
  5
126
330
1E
100
AcDbEntity
  8
1
100
AcDbCircle
 10
444.7499999999999
 20
641.0
 30
0.0
 40
1.5
100
AcDbArc
 50
270.0
 51
90.0
  0
ARC
  5
127
330
1E
100
AcDbEntity
  8
1
100
AcDbCircle
 10
427.2499999999999
 20
641.0
 30
0.0
 40
1.5
100
AcDbArc
 50
90.0
 51
270.0
  0
LINE
  5
128
330
1E
100
AcDbEntity
  8
1
100
AcDbLine
 10
444.7499999999999
 20
644.5
 30
0.0
 11
427.2499999999999
 21
644.5
 31
0.0
  0
LINE
  5
129
330
1E
100
AcDbEntity
  8
1
100
AcDbLine
 10
444.7499999999999
 20
647.5
 30
0.0
 11
427.2499999999999
 21
647.5
 31
0.0
  0
ARC
  5
12A
330
1E
100
AcDbEntity
  8
1
100
AcDbCircle
 10
444.7499999999999
 20
646.0
 30
0.0
 40
1.5
100
AcDbArc
 50
270.0
 51
90.0
  0
ARC
  5
12B
330
1E
100
AcDbEntity
  8
1
100
AcDbCircle
 10
427.2499999999999
 20
646.0
 30
0.0
 40
1.5
100
AcDbArc
 50
90.0
 51
270.0
  0
LINE
  5
12C
330
1E
100
AcDbEntity
  8
1
100
AcDbLine
 10
444.7499999999999
 20
637.5
 30
0.0
 11
444.7499999999999
 21
639.5
 31
0.0
  0
LINE
  5
12D
330
1E
100
AcDbEntity
  8
1
100
AcDbLine
 10
427.2499999999999
 20
637.5
 30
0.0
 11
427.2499999999999
 21
639.5
 31
0.0
  0
LINE
  5
12E
330
1E
100
AcDbEntity
  8
1
100
AcDbLine
 10
444.7499999999999
 20
647.5
 30
0.0
 11
444.7499999999999
 21
649.5
 31
0.0
  0
LINE
  5
12F
330
1E
100
AcDbEntity
  8
1
100
AcDbLine
 10
427.2499999999999
 20
647.5
 30
0.0
 11
427.2499999999999
 21
649.5
 31
0.0
  0
LINE
  5
130
330
1E
100
AcDbEntity
  8
1
100
AcDbLine
 10
444.7499999999999
 20
649.5
 30
0.0
 11
427.2499999999999
 21
649.5
 31
0.0
  0
LINE
  5
131
330
1E
100
AcDbEntity
  8
1
100
AcDbLine
 10
444.7499999999999
 20
652.5
 30
0.0
 11
427.2499999999999
 21
652.5
 31
0.0
  0
ARC
  5
132
330
1E
100
AcDbEntity
  8
1
100
AcDbCircle
 10
444.7499999999999
 20
651.0
 30
0.0
 40
1.5
100
AcDbArc
 50
270.0
 51
90.0
  0
ARC
  5
133
330
1E
100
AcDbEntity
  8
1
100
AcDbCircle
 10
427.2499999999999
 20
651.0
 30
0.0
 40
1.5
100
AcDbArc
 50
90.0
 51
270.0
  0
LINE
  5
134
330
1E
100
AcDbEntity
  8
1
100
AcDbLine
 10
444.7499999999999
 20
652.5
 30
0.0
 11
444.7499999999999
 21
654.4999999999999
 31
0.0
  0
LINE
  5
135
330
1E
100
AcDbEntity
  8
1
100
AcDbLine
 10
427.2499999999999
 20
652.5
 30
0.0
 11
427.2499999999999
 21
654.4999999999999
 31
0.0
  0
LINE
  5
136
330
1E
100
AcDbEntity
  8
1
100
AcDbLine
 10
444.7499999999999
 20
654.4999999999999
 30
0.0
 11
427.2499999999999
 21
654.4999999999999
 31
0.0
  0
LINE
  5
137
330
1E
100
AcDbEntity
  8
1
100
AcDbLine
 10
444.7499999999999
 20
657.5
 30
0.0
 11
427.2499999999999
 21
657.5
 31
0.0
  0
ARC
  5
138
330
1E
100
AcDbEntity
  8
1
100
AcDbCircle
 10
444.7499999999999
 20
656.0
 30
0.0
 40
1.5
100
AcDbArc
 50
270.0
 51
90.0
  0
ARC
  5
139
330
1E
100
AcDbEntity
  8
1
100
AcDbCircle
 10
427.2499999999999
 20
656.0
 30
0.0
 40
1.5
100
AcDbArc
 50
90.0
 51
270.0
  0
LINE
  5
13A
330
1E
100
AcDbEntity
  8
1
100
AcDbLine
 10
444.7499999999999
 20
657.5
 30
0.0
 11
444.7499999999999
 21
659.4999999999999
 31
0.0
  0
LINE
  5
13B
330
1E
100
AcDbEntity
  8
1
100
AcDbLine
 10
427.2499999999999
 20
657.5
 30
0.0
 11
427.2499999999999
 21
659.4999999999999
 31
0.0
  0
LINE
  5
13C
330
1E
100
AcDbEntity
  8
1
100
AcDbLine
 10
444.7499999999999
 20
659.4999999999999
 30
0.0
 11
427.2499999999999
 21
659.4999999999999
 31
0.0
  0
LINE
  5
13D
330
1E
100
AcDbEntity
  8
1
100
AcDbLine
 10
444.7499999999999
 20
662.5
 30
0.0
 11
427.2499999999999
 21
662.5
 31
0.0
  0
ARC
  5
13E
330
1E
100
AcDbEntity
  8
1
100
AcDbCircle
 10
444.7499999999999
 20
661.0
 30
0.0
 40
1.5
100
AcDbArc
 50
270.0
 51
90.0
  0
ARC
  5
13F
330
1E
100
AcDbEntity
  8
1
100
AcDbCircle
 10
427.2499999999999
 20
661.0
 30
0.0
 40
1.5
100
AcDbArc
 50
90.0
 51
270.0
  0
LINE
  5
140
330
1E
100
AcDbEntity
  8
1
100
AcDbLine
 10
444.7499999999999
 20
662.5
 30
0.0
 11
444.7499999999999
 21
664.5
 31
0.0
  0
LINE
  5
141
330
1E
100
AcDbEntity
  8
1
100
AcDbLine
 10
427.2499999999999
 20
662.5
 30
0.0
 11
427.2499999999999
 21
664.5
 31
0.0
  0
LINE
  5
142
330
1E
100
AcDbEntity
  8
1
100
AcDbLine
 10
592.0
 20
737.5
 30
0.0
 11
592.0
 21
707.5
 31
0.0
  0
LINE
  5
143
330
1E
100
AcDbEntity
  8
1
100
AcDbLine
 10
578.0
 20
737.5
 30
0.0
 11
578.0
 21
707.5
 31
0.0
  0
CIRCLE
  5
144
330
1E
100
AcDbEntity
  8
1
100
AcDbCircle
 10
585.0
 20
722.5
 30
0.0
 40
6.5
  0
LWPOLYLINE
  5
145
330
1E
100
AcDbEntity
  8
1
100
AcDbPolyline
 90
       29
 70
     1
 43
0.0
 10
578.5
 20
735.0
 10
578.5666679999999
 20
734.4999999999999
 10
578.770953
 20
734.0
 10
579.127199
 20
733.4999999999999
 10
579.6657629999999
 20
733.0
 10
580.450948
 20
732.5
 10
581.6519879999999
 20
732.0
 10
585.0
 20
731.5
 10
588.348012
 20
732.0
 10
589.549052
 20
732.5
 10
590.334237
 20
733.0
 10
590.8728009999999
 20
733.4999999999999
 10
591.2290469999999
 20
734.0
 10
591.433332
 20
734.4999999999999
 10
591.5
 20
735.0
 10
591.433332
 20
735.5
 10
591.2290469999999
 20
736.0
 10
590.8728009999999
 20
736.5
 10
590.334237
 20
737.0
 10
589.549052
 20
737.5
 10
588.348012
 20
738.0
 10
585.0
 20
738.4999999999999
 10
581.6519879999999
 20
738.0
 10
580.450948
 20
737.5
 10
579.6657629999999
 20
737.0
 10
579.127199
 20
736.5
 10
578.770953
 20
736.0
 10
578.5666679999999
 20
735.5
 10
578.5
 20
735.0
  0
ARC
  5
164
330
1E
100
AcDbEntity
  8
1
100
AcDbCircle
 10
585.0
 20
713.4999999999999
 30
0.0
 40
25.0
100
AcDbArc
 50
73.739795
 51
106.2602049999999
  0
LWPOLYLINE
  5
165
330
1E
100
AcDbEntity
  8
1
100
AcDbPolyline
 90
       29
 70
     1
 43
0.0
 10
578.5
 20
710.0
 10
578.5666679999999
 20
709.4999999999999
 10
578.770953
 20
709.0
 10
579.127199
 20
708.4999999999999
 10
579.6657629999999
 20
708.0
 10
580.450948
 20
707.5
 10
581.6519879999999
 20
707.0
 10
585.0
 20
706.5
 10
588.348012
 20
707.0
 10
589.549052
 20
707.5
 10
590.334237
 20
708.0
 10
590.8728009999999
 20
708.4999999999999
 10
591.2290469999999
 20
709.0
 10
591.433332
 20
709.4999999999999
 10
591.5
 20
710.0
 10
591.433332
 20
710.5
 10
591.2290469999999
 20
711.0
 10
590.8728009999999
 20
711.5
 10
590.334237
 20
712.0
 10
589.549052
 20
712.5
 10
588.348012
 20
713.0
 10
585.0
 20
713.4999999999999
 10
581.6519879999999
 20
713.0
 10
580.450948
 20
712.5
 10
579.6657629999999
 20
712.0
 10
579.127199
 20
711.5
 10
578.770953
 20
711.0
 10
578.5666679999999
 20
710.5
 10
578.5
 20
710.0
  0
ARC
  5
184
330
1E
100
AcDbEntity
  8
1
100
AcDbCircle
 10
585.0
 20
731.5
 30
0.0
 40
25.0
100
AcDbArc
 50
253.739795
 51
286.2602049999999
  0
LINE
  5
185
330
1E
100
AcDbEntity
  8
1
100
AcDbLine
 10
573.0
 20
731.25
 30
0.0
 11
571.0
 21
731.25
 31
0.0
  0
LINE
  5
186
330
1E
100
AcDbEntity
  8
1
100
AcDbLine
 10
573.0
 20
713.75
 30
0.0
 11
571.0
 21
713.75
 31
0.0
  0
LINE
  5
187
330
1E
100
AcDbEntity
  8
1
100
AcDbLine
 10
576.0
 20
731.25
 30
0.0
 11
576.0
 21
713.75
 31
0.0
  0
LINE
  5
188
330
1E
100
AcDbEntity
  8
1
100
AcDbLine
 10
573.0
 20
731.25
 30
0.0
 11
573.0
 21
713.75
 31
0.0
  0
ARC
  5
189
330
1E
100
AcDbEntity
  8
1
100
AcDbCircle
 10
574.5
 20
731.25
 30
0.0
 40
1.5
100
AcDbArc
 50
0.0
 51
180.0
  0
ARC
  5
18A
330
1E
100
AcDbEntity
  8
1
100
AcDbCircle
 10
574.5
 20
713.75
 30
0.0
 40
1.5
100
AcDbArc
 50
180.0
 51
0.0
  0
LINE
  5
18B
330
1E
100
AcDbEntity
  8
1
100
AcDbLine
 10
571.0
 20
731.25
 30
0.0
 11
571.0
 21
713.75
 31
0.0
  0
LINE
  5
18C
330
1E
100
AcDbEntity
  8
1
100
AcDbLine
 10
568.0
 20
731.25
 30
0.0
 11
568.0
 21
713.75
 31
0.0
  0
ARC
  5
18D
330
1E
100
AcDbEntity
  8
1
100
AcDbCircle
 10
569.5
 20
731.25
 30
0.0
 40
1.5
100
AcDbArc
 50
0.0
 51
180.0
  0
ARC
  5
18E
330
1E
100
AcDbEntity
  8
1
100
AcDbCircle
 10
569.5
 20
713.75
 30
0.0
 40
1.5
100
AcDbArc
 50
180.0
 51
0.0
  0
LINE
  5
18F
330
1E
100
AcDbEntity
  8
1
100
AcDbLine
 10
578.0
 20
731.25
 30
0.0
 11
576.0
 21
731.25
 31
0.0
  0
LINE
  5
190
330
1E
100
AcDbEntity
  8
1
100
AcDbLine
 10
578.0
 20
713.75
 30
0.0
 11
576.0
 21
713.75
 31
0.0
  0
LINE
  5
191
330
1E
100
AcDbEntity
  8
1
100
AcDbLine
 10
568.0
 20
731.25
 30
0.0
 11
566.0
 21
731.25
 31
0.0
  0
LINE
  5
192
330
1E
100
AcDbEntity
  8
1
100
AcDbLine
 10
568.0
 20
713.75
 30
0.0
 11
566.0
 21
713.75
 31
0.0
  0
LINE
  5
193
330
1E
100
AcDbEntity
  8
1
100
AcDbLine
 10
566.0
 20
731.25
 30
0.0
 11
566.0
 21
713.75
 31
0.0
  0
LINE
  5
194
330
1E
100
AcDbEntity
  8
1
100
AcDbLine
 10
563.0
 20
731.25
 30
0.0
 11
563.0
 21
713.75
 31
0.0
  0
ARC
  5
195
330
1E
100
AcDbEntity
  8
1
100
AcDbCircle
 10
564.5
 20
731.25
 30
0.0
 40
1.5
100
AcDbArc
 50
0.0
 51
180.0
  0
ARC
  5
196
330
1E
100
AcDbEntity
  8
1
100
AcDbCircle
 10
564.5
 20
713.75
 30
0.0
 40
1.5
100
AcDbArc
 50
180.0
 51
0.0
  0
LINE
  5
197
330
1E
100
AcDbEntity
  8
1
100
AcDbLine
 10
563.0
 20
731.25
 30
0.0
 11
561.0
 21
731.25
 31
0.0
  0
LINE
  5
198
330
1E
100
AcDbEntity
  8
1
100
AcDbLine
 10
563.0
 20
713.75
 30
0.0
 11
561.0
 21
713.75
 31
0.0
  0
LINE
  5
199
330
1E
100
AcDbEntity
  8
1
100
AcDbLine
 10
561.0
 20
731.25
 30
0.0
 11
561.0
 21
713.75
 31
0.0
  0
LINE
  5
19A
330
1E
100
AcDbEntity
  8
1
100
AcDbLine
 10
558.0
 20
731.25
 30
0.0
 11
558.0
 21
713.75
 31
0.0
  0
ARC
  5
19B
330
1E
100
AcDbEntity
  8
1
100
AcDbCircle
 10
559.4999999999999
 20
731.25
 30
0.0
 40
1.5
100
AcDbArc
 50
0.0
 51
180.0
  0
ARC
  5
19C
330
1E
100
AcDbEntity
  8
1
100
AcDbCircle
 10
559.4999999999999
 20
713.75
 30
0.0
 40
1.5
100
AcDbArc
 50
180.0
 51
0.0
  0
LINE
  5
19D
330
1E
100
AcDbEntity
  8
1
100
AcDbLine
 10
558.0
 20
731.25
 30
0.0
 11
556.0
 21
731.25
 31
0.0
  0
LINE
  5
19E
330
1E
100
AcDbEntity
  8
1
100
AcDbLine
 10
558.0
 20
713.75
 30
0.0
 11
556.0
 21
713.75
 31
0.0
  0
LINE
  5
19F
330
1E
100
AcDbEntity
  8
1
100
AcDbLine
 10
556.0
 20
731.25
 30
0.0
 11
556.0
 21
713.75
 31
0.0
  0
LINE
  5
1A0
330
1E
100
AcDbEntity
  8
1
100
AcDbLine
 10
553.0
 20
731.25
 30
0.0
 11
553.0
 21
713.75
 31
0.0
  0
ARC
  5
1A1
330
1E
100
AcDbEntity
  8
1
100
AcDbCircle
 10
554.4999999999999
 20
731.25
 30
0.0
 40
1.5
100
AcDbArc
 50
0.0
 51
180.0
  0
ARC
  5
1A2
330
1E
100
AcDbEntity
  8
1
100
AcDbCircle
 10
554.4999999999999
 20
713.75
 30
0.0
 40
1.5
100
AcDbArc
 50
180.0
 51
0.0
  0
LINE
  5
1A3
330
1E
100
AcDbEntity
  8
1
100
AcDbLine
 10
553.0
 20
731.25
 30
0.0
 11
551.0
 21
731.25
 31
0.0
  0
LINE
  5
1A4
330
1E
100
AcDbEntity
  8
1
100
AcDbLine
 10
553.0
 20
713.75
 30
0.0
 11
551.0
 21
713.75
 31
0.0
  0
LINE
  5
1A5
330
1E
100
AcDbEntity
  8
1
100
AcDbLine
 10
551.0
 20
731.25
 30
0.0
 11
551.0
 21
713.75
 31
0.0
  0
LINE
  5
1A6
330
1E
100
AcDbEntity
  8
1
100
AcDbLine
 10
548.0
 20
731.25
 30
0.0
 11
548.0
 21
713.75
 31
0.0
  0
ARC
  5
1A7
330
1E
100
AcDbEntity
  8
1
100
AcDbCircle
 10
549.5
 20
731.25
 30
0.0
 40
1.5
100
AcDbArc
 50
0.0
 51
180.0
  0
ARC
  5
1A8
330
1E
100
AcDbEntity
  8
1
100
AcDbCircle
 10
549.5
 20
713.75
 30
0.0
 40
1.5
100
AcDbArc
 50
180.0
 51
0.0
  0
LINE
  5
1A9
330
1E
100
AcDbEntity
  8
1
100
AcDbLine
 10
548.0
 20
731.25
 30
0.0
 11
546.0
 21
731.25
 31
0.0
  0
LINE
  5
1AA
330
1E
100
AcDbEntity
  8
1
100
AcDbLine
 10
548.0
 20
713.75
 30
0.0
 11
546.0
 21
713.75
 31
0.0
  0
LINE
  5
1AB
330
1E
100
AcDbEntity
  8
1
100
AcDbLine
 10
546.0
 20
731.25
 30
0.0
 11
546.0
 21
713.75
 31
0.0
  0
LINE
  5
1AC
330
1E
100
AcDbEntity
  8
1
100
AcDbLine
 10
543.0
 20
731.25
 30
0.0
 11
543.0
 21
713.75
 31
0.0
  0
ARC
  5
1AD
330
1E
100
AcDbEntity
  8
1
100
AcDbCircle
 10
544.5
 20
731.25
 30
0.0
 40
1.5
100
AcDbArc
 50
0.0
 51
180.0
  0
ARC
  5
1AE
330
1E
100
AcDbEntity
  8
1
100
AcDbCircle
 10
544.5
 20
713.75
 30
0.0
 40
1.5
100
AcDbArc
 50
180.0
 51
0.0
  0
LINE
  5
1AF
330
1E
100
AcDbEntity
  8
1
100
AcDbLine
 10
543.0
 20
731.25
 30
0.0
 11
541.0
 21
731.25
 31
0.0
  0
LINE
  5
1B0
330
1E
100
AcDbEntity
  8
1
100
AcDbLine
 10
543.0
 20
713.75
 30
0.0
 11
541.0
 21
713.75
 31
0.0
  0
LINE
  5
1B1
330
1E
100
AcDbEntity
  8
1
100
AcDbLine
 10
541.0
 20
731.25
 30
0.0
 11
541.0
 21
713.75
 31
0.0
  0
LINE
  5
1B2
330
1E
100
AcDbEntity
  8
1
100
AcDbLine
 10
538.0
 20
731.25
 30
0.0
 11
537.999998
 21
721.089959
 31
0.0
  0
ARC
  5
1B3
330
1E
100
AcDbEntity
  8
1
100
AcDbCircle
 10
539.5
 20
731.25
 30
0.0
 40
1.5
100
AcDbArc
 50
0.0
 51
180.0
  0
ARC
  5
1B4
330
1E
100
AcDbEntity
  8
1
100
AcDbCircle
 10
539.5
 20
713.75
 30
0.0
 40
1.5
100
AcDbArc
 50
189.7191249999999
 51
0.0
  0
LINE
  5
1B5
330
1E
100
AcDbEntity
  8
1
100
AcDbLine
 10
538.0
 20
731.25
 30
0.0
 11
536.0
 21
731.25
 31
0.0
  0
LINE
  5
1B6
330
1E
100
AcDbEntity
  8
1
100
AcDbLine
 10
536.0
 20
731.25
 30
0.0
 11
536.0
 21
723.9100429999999
 31
0.0
  0
LINE
  5
1B7
330
1E
100
AcDbEntity
  8
1
100
AcDbLine
 10
528.0
 20
721.089957
 30
0.0
 11
528.0
 21
713.75
 31
0.0
  0
ARC
  5
1B8
330
1E
100
AcDbEntity
  8
1
100
AcDbCircle
 10
534.4999999999999
 20
731.25
 30
0.0
 40
1.5
100
AcDbArc
 50
0.0
 51
9.719138
  0
ARC
  5
1B9
330
1E
100
AcDbEntity
  8
1
100
AcDbCircle
 10
529.4999999999999
 20
713.75
 30
0.0
 40
1.5
100
AcDbArc
 50
180.0
 51
189.7191249999999
  0
LINE
  5
1BA
330
1E
100
AcDbEntity
  8
1
100
AcDbLine
 10
528.0
 20
713.75
 30
0.0
 11
526.0
 21
713.75
 31
0.0
  0
LINE
  5
1BB
330
1E
100
AcDbEntity
  8
1
100
AcDbLine
 10
526.0
 20
723.9100440000001
 30
0.0
 11
526.0
 21
713.75
 31
0.0
  0
LINE
  5
1BC
330
1E
100
AcDbEntity
  8
1
100
AcDbLine
 10
523.0
 20
731.25
 30
0.0
 11
523.0
 21
713.75
 31
0.0
  0
ARC
  5
1BD
330
1E
100
AcDbEntity
  8
1
100
AcDbCircle
 10
524.5
 20
731.25
 30
0.0
 40
1.5
100
AcDbArc
 50
9.719128999999998
 51
180.0
  0
ARC
  5
1BE
330
1E
100
AcDbEntity
  8
1
100
AcDbCircle
 10
524.5
 20
713.75
 30
0.0
 40
1.5
100
AcDbArc
 50
180.0
 51
0.0
  0
LINE
  5
1BF
330
1E
100
AcDbEntity
  8
1
100
AcDbLine
 10
523.0
 20
731.25
 30
0.0
 11
521.0
 21
731.25
 31
0.0
  0
LINE
  5
1C0
330
1E
100
AcDbEntity
  8
1
100
AcDbLine
 10
523.0
 20
713.75
 30
0.0
 11
521.0
 21
713.75
 31
0.0
  0
LINE
  5
1C1
330
1E
100
AcDbEntity
  8
1
100
AcDbLine
 10
521.0
 20
731.25
 30
0.0
 11
521.0
 21
713.75
 31
0.0
  0
LINE
  5
1C2
330
1E
100
AcDbEntity
  8
1
100
AcDbLine
 10
518.0
 20
731.25
 30
0.0
 11
518.0
 21
713.75
 31
0.0
  0
ARC
  5
1C3
330
1E
100
AcDbEntity
  8
1
100
AcDbCircle
 10
519.5
 20
731.25
 30
0.0
 40
1.5
100
AcDbArc
 50
0.0
 51
180.0
  0
ARC
  5
1C4
330
1E
100
AcDbEntity
  8
1
100
AcDbCircle
 10
519.5
 20
713.75
 30
0.0
 40
1.5
100
AcDbArc
 50
180.0
 51
0.0
  0
LINE
  5
1C5
330
1E
100
AcDbEntity
  8
1
100
AcDbLine
 10
518.0
 20
731.25
 30
0.0
 11
516.0
 21
731.25
 31
0.0
  0
LINE
  5
1C6
330
1E
100
AcDbEntity
  8
1
100
AcDbLine
 10
518.0
 20
713.75
 30
0.0
 11
516.0
 21
713.75
 31
0.0
  0
LINE
  5
1C7
330
1E
100
AcDbEntity
  8
1
100
AcDbLine
 10
516.0
 20
731.25
 30
0.0
 11
516.0
 21
713.75
 31
0.0
  0
LINE
  5
1C8
330
1E
100
AcDbEntity
  8
1
100
AcDbLine
 10
511.0
 20
731.25
 30
0.0
 11
511.0
 21
713.75
 31
0.0
  0
ARC
  5
1C9
330
1E
100
AcDbEntity
  8
1
100
AcDbCircle
 10
514.5
 20
731.25
 30
0.0
 40
1.5
100
AcDbArc
 50
0.0
 51
180.0
  0
ARC
  5
1CA
330
1E
100
AcDbEntity
  8
1
100
AcDbCircle
 10
514.5
 20
713.75
 30
0.0
 40
1.5
100
AcDbArc
 50
180.0
 51
0.0
  0
LINE
  5
1CB
330
1E
100
AcDbEntity
  8
1
  6
CENTER
 62
     1
100
AcDbLine
 10
602.0
 20
722.5
 30
0.0
 11
486.0
 21
722.5
 31
0.0
  0
ARC
  5
1CC
330
1E
100
AcDbEntity
  8
1
  6
CENTER
 62
     1
100
AcDbCircle
 10
486.0
 20
672.5
 30
0.0
 40
50.0
100
AcDbArc
 50
90.0
 51
180.0
  0
LINE
  5
1CD
330
1E
100
AcDbEntity
  8
1
100
AcDbLine
 10
444.7499999999999
 20
664.5
 30
0.0
 11
427.2499999999999
 21
664.5
 31
0.0
  0
ARC
  5
1CE
330
1E
100
AcDbEntity
  8
1
100
AcDbCircle
 10
427.2499999999999
 20
666.0
 30
0.0
 40
1.5
100
AcDbArc
 50
90.0
 51
270.0
  0
LINE
  5
1CF
330
1E
100
AcDbEntity
  8
1
100
AcDbLine
 10
444.7499999999999
 20
667.4999999999999
 30
0.0
 11
427.2499999999999
 21
667.4999999999999
 31
0.0
  0
ARC
  5
1D0
330
1E
100
AcDbEntity
  8
1
100
AcDbCircle
 10
444.7499999999999
 20
666.0
 30
0.0
 40
1.5
100
AcDbArc
 50
270.0
 51
90.0
  0
LINE
  5
1D1
330
1E
100
AcDbEntity
  8
1
100
AcDbLine
 10
444.7499999999999
 20
667.4999999999999
 30
0.0
 11
444.7499999999999
 21
669.5
 31
0.0
  0
LINE
  5
1D2
330
1E
100
AcDbEntity
  8
1
100
AcDbLine
 10
427.2499999999999
 20
667.4999999999999
 30
0.0
 11
427.2499999999999
 21
669.5
 31
0.0
  0
LINE
  5
1D3
330
1E
100
AcDbEntity
  8
1
100
AcDbLine
 10
444.7499999999999
 20
669.5
 30
0.0
 11
427.2499999999999
 21
669.5
 31
0.0
  0
LINE
  5
1D4
330
1E
100
AcDbEntity
  8
1
100
AcDbLine
 10
444.7499999999999
 20
672.5
 30
0.0
 11
427.2499999999999
 21
672.5
 31
0.0
  0
ARC
  5
1D5
330
1E
100
AcDbEntity
  8
1
100
AcDbCircle
 10
444.7499999999999
 20
671.0
 30
0.0
 40
1.5
100
AcDbArc
 50
270.0
 51
90.0
  0
ARC
  5
1D6
330
1E
100
AcDbEntity
  8
1
100
AcDbCircle
 10
427.2499999999999
 20
671.0
 30
0.0
 40
1.5
100
AcDbArc
 50
90.0
 51
270.0
  0
LINE
  5
1D7
330
1E
100
AcDbEntity
  8
1
100
AcDbLine
 10
444.7499999999999
 20
672.5
 30
0.0
 11
444.7499999999999
 21
673.0974480000001
 31
0.0
  0
LINE
  5
1D8
330
1E
100
AcDbEntity
  8
1
100
AcDbLine
 10
427.2499999999999
 20
672.5
 30
0.0
 11
427.2499999999999
 21
674.628499
 31
0.0
  0
LINE
  5
1D9
330
1E
100
AcDbEntity
  8
1
100
AcDbLine
 10
444.645501
 20
673.1065899999999
 30
0.0
 11
427.2120939999999
 21
674.6318160000001
 31
0.0
  0
LINE
  5
1DA
330
1E
100
AcDbEntity
  8
1
100
AcDbLine
 10
444.9069689999999
 20
676.095174
 30
0.0
 11
427.4735609999999
 21
677.6203999999999
 31
0.0
  0
ARC
  5
1DB
330
1E
100
AcDbEntity
  8
1
100
AcDbCircle
 10
444.7762349999999
 20
674.6008820000001
 30
0.0
 40
1.5
100
AcDbArc
 50
265.0
 51
85.0
  0
ARC
  5
1DC
330
1E
100
AcDbEntity
  8
1
100
AcDbCircle
 10
427.342828
 20
676.126108
 30
0.0
 40
1.5
100
AcDbArc
 50
85.0
 51
265.0
  0
LINE
  5
1DD
330
1E
100
AcDbEntity
  8
1
100
AcDbLine
 10
444.9069689999999
 20
676.095174
 30
0.0
 11
444.9590399999999
 21
676.6903489999999
 31
0.0
  0
LINE
  5
1DE
330
1E
100
AcDbEntity
  8
1
100
AcDbLine
 10
427.4735609999999
 20
677.6203999999999
 30
0.0
 11
427.659072
 21
679.7408
 31
0.0
  0
LINE
  5
1DF
330
1E
100
AcDbEntity
  8
1
100
AcDbLine
 10
444.8557359999999
 20
676.7085639999999
 30
0.0
 11
427.6215999999999
 21
679.747407
 31
0.0
  0
LINE
  5
1E0
330
1E
100
AcDbEntity
  8
1
100
AcDbLine
 10
445.3766799999999
 20
679.662987
 30
0.0
 11
428.142545
 21
682.7018299999999
 31
0.0
  0
ARC
  5
1E1
330
1E
100
AcDbEntity
  8
1
100
AcDbCircle
 10
445.116208
 20
678.185776
 30
0.0
 40
1.5
100
AcDbArc
 50
260.0
 51
80.0
  0
ARC
  5
1E2
330
1E
100
AcDbEntity
  8
1
100
AcDbCircle
 10
427.8820719999999
 20
681.224619
 30
0.0
 40
1.5
100
AcDbArc
 50
80.0
 51
260.0
  0
LINE
  5
1E3
330
1E
100
AcDbEntity
  8
1
100
AcDbLine
 10
445.3766799999999
 20
679.662987
 30
0.0
 11
445.4804259999999
 21
680.251359
 31
0.0
  0
LINE
  5
1E4
330
1E
100
AcDbEntity
  8
1
100
AcDbLine
 10
428.142545
 20
682.7018299999999
 30
0.0
 11
428.512155
 21
684.797993
 31
0.0
  0
LINE
  5
1E5
330
1E
100
AcDbEntity
  8
1
100
AcDbLine
 10
445.3791029999999
 20
680.2785079999999
 30
0.0
 11
428.4754009999999
 21
684.807841
 31
0.0
  0
LINE
  5
1E6
330
1E
100
AcDbEntity
  8
1
100
AcDbLine
 10
446.15556
 20
683.176286
 30
0.0
 11
429.251858
 21
687.7056190000001
 31
0.0
  0
ARC
  5
1E7
330
1E
100
AcDbEntity
  8
1
100
AcDbCircle
 10
445.767331
 20
681.727397
 30
0.0
 40
1.5
100
AcDbArc
 50
255.0
 51
75.0
  0
ARC
  5
1E8
330
1E
100
AcDbEntity
  8
1
100
AcDbCircle
 10
428.863629
 20
686.2567299999999
 30
0.0
 40
1.5
100
AcDbArc
 50
75.0
 51
255.0
  0
LINE
  5
1E9
330
1E
100
AcDbEntity
  8
1
100
AcDbLine
 10
446.15556
 20
683.176286
 30
0.0
 11
446.310191
 21
683.753376
 31
0.0
  0
LINE
  5
1EA
330
1E
100
AcDbEntity
  8
1
100
AcDbLine
 10
429.251858
 20
687.7056190000001
 30
0.0
 11
429.8027539999999
 21
689.7615919999999
 31
0.0
  0
LINE
  5
1EB
330
1E
100
AcDbEntity
  8
1
100
AcDbLine
 10
446.2116189999999
 20
683.789253
 30
0.0
 11
429.766998
 21
689.7746059999999
 31
0.0
  0
LINE
  5
1EC
330
1E
100
AcDbEntity
  8
1
100
AcDbLine
 10
447.237679
 20
686.6083309999999
 30
0.0
 11
430.7930589999999
 21
692.593683
 31
0.0
  0
ARC
  5
1ED
330
1E
100
AcDbEntity
  8
1
100
AcDbCircle
 10
446.7246489999999
 20
685.198792
 30
0.0
 40
1.5
100
AcDbArc
 50
250.0
 51
70.0
  0
ARC
  5
1EE
330
1E
100
AcDbEntity
  8
1
100
AcDbCircle
 10
430.2800279999999
 20
691.184144
 30
0.0
 40
1.5
100
AcDbArc
 50
70.0
 51
250.0
  0
LINE
  5
1EF
330
1E
100
AcDbEntity
  8
1
100
AcDbLine
 10
447.237679
 20
686.6083309999999
 30
0.0
 11
447.442019
 21
687.169748
 31
0.0
  0
LINE
  5
1F0
330
1E
100
AcDbEntity
  8
1
100
AcDbLine
 10
430.7930589999999
 20
692.593683
 30
0.0
 11
431.521048
 21
694.593819
 31
0.0
  0
LINE
  5
1F1
330
1E
100
AcDbEntity
  8
1
100
AcDbLine
 10
447.346949
 20
687.2140799999999
 30
0.0
 11
431.4865629999999
 21
694.6099
 31
0.0
  0
LINE
  5
1F2
330
1E
100
AcDbEntity
  8
1
100
AcDbLine
 10
448.6148039999999
 20
689.9330029999999
 30
0.0
 11
432.754418
 21
697.328823
 31
0.0
  0
ARC
  5
1F3
330
1E
100
AcDbEntity
  8
1
100
AcDbCircle
 10
447.980876
 20
688.5735419999999
 30
0.0
 40
1.5
100
AcDbArc
 50
245.0
 51
65.0
  0
ARC
  5
1F4
330
1E
100
AcDbEntity
  8
1
100
AcDbCircle
 10
432.12049
 20
695.969361
 30
0.0
 40
1.5
100
AcDbArc
 50
65.0
 51
245.0
  0
LINE
  5
1F5
330
1E
100
AcDbEntity
  8
1
100
AcDbLine
 10
448.6148039999999
 20
689.9330029999999
 30
0.0
 11
448.867296
 21
690.4744749999999
 31
0.0
  0
LINE
  5
1F6
330
1E
100
AcDbEntity
  8
1
100
AcDbLine
 10
432.754418
 20
697.328823
 30
0.0
 11
433.65396
 21
699.2578990000001
 31
0.0
  0
LINE
  5
1F7
330
1E
100
AcDbEntity
  8
1
100
AcDbLine
 10
448.7764519999999
 20
690.5269239999999
 30
0.0
 11
433.6210079999999
 21
699.276924
 31
0.0
  0
LINE
  5
1F8
330
1E
100
AcDbEntity
  8
1
100
AcDbLine
 10
450.276452
 20
693.125
 30
0.0
 11
435.121008
 21
701.8749999999999
 31
0.0
  0
ARC
  5
1F9
330
1E
100
AcDbEntity
  8
1
100
AcDbCircle
 10
449.526452
 20
691.825962
 30
0.0
 40
1.5
100
AcDbArc
 50
239.9999999999999
 51
60.0
  0
ARC
  5
1FA
330
1E
100
AcDbEntity
  8
1
100
AcDbCircle
 10
434.371008
 20
700.575962
 30
0.0
 40
1.5
100
AcDbArc
 50
60.0
 51
239.9999999999999
  0
LINE
  5
1FB
330
1E
100
AcDbEntity
  8
1
100
AcDbLine
 10
450.276452
 20
693.125
 30
0.0
 11
450.5751759999999
 21
693.6424049999999
 31
0.0
  0
LINE
  5
1FC
330
1E
100
AcDbEntity
  8
1
100
AcDbLine
 10
435.121008
 20
701.8749999999999
 30
0.0
 11
436.1852569999999
 21
703.7183349999999
 31
0.0
  0
LINE
  5
1FD
330
1E
100
AcDbEntity
  8
1
100
AcDbLine
 10
450.489249
 20
693.7025719999999
 30
0.0
 11
436.1540879999999
 21
703.7401599999999
 31
0.0
  0
LINE
  5
1FE
330
1E
100
AcDbEntity
  8
1
100
AcDbLine
 10
452.2099779999999
 20
696.1600279999999
 30
0.0
 11
437.874817
 21
706.197616
 31
0.0
  0
ARC
  5
1FF
330
1E
100
AcDbEntity
  8
1
100
AcDbCircle
 10
451.3496139999999
 20
694.9313
 30
0.0
 40
1.5
100
AcDbArc
 50
235.0
 51
55.0
  0
ARC
  5
200
330
1E
100
AcDbEntity
  8
1
100
AcDbCircle
 10
437.014453
 20
704.9688879999999
 30
0.0
 40
1.5
100
AcDbArc
 50
55.0
 51
235.0
  0
LINE
  5
201
330
1E
100
AcDbEntity
  8
1
100
AcDbLine
 10
452.2099779999999
 20
696.1600279999999
 30
0.0
 11
452.55266
 21
696.649429
 31
0.0
  0
LINE
  5
202
330
1E
100
AcDbEntity
  8
1
100
AcDbLine
 10
437.874817
 20
706.197616
 30
0.0
 11
439.0956749999999
 21
707.94118
 31
0.0
  0
LINE
  5
203
330
1E
100
AcDbEntity
  8
1
100
AcDbLine
 10
452.472304
 20
696.716856
 30
0.0
 11
439.0665259999999
 21
707.965639
 31
0.0
  0
LINE
  5
204
330
1E
100
AcDbEntity
  8
1
100
AcDbLine
 10
454.4006669999999
 20
699.014989
 30
0.0
 11
440.9948889999999
 21
710.263772
 31
0.0
  0
ARC
  5
205
330
1E
100
AcDbEntity
  8
1
100
AcDbCircle
 10
453.436485
 20
697.8659219999999
 30
0.0
 40
1.5
100
AcDbArc
 50
230.0
 51
50.0
  0
ARC
  5
206
330
1E
100
AcDbEntity
  8
1
100
AcDbCircle
 10
440.030708
 20
709.114705
 30
0.0
 40
1.5
100
AcDbArc
 50
50.0
 51
230.0
  0
LINE
  5
207
330
1E
100
AcDbEntity
  8
1
100
AcDbLine
 10
454.4006669999999
 20
699.014989
 30
0.0
 11
454.784699
 21
699.472661
 31
0.0
  0
LINE
  5
208
330
1E
100
AcDbEntity
  8
1
100
AcDbLine
 10
440.9948889999999
 20
710.263772
 30
0.0
 11
442.3630619999999
 21
711.8942969999999
 31
0.0
  0
LINE
  5
209
330
1E
100
AcDbEntity
  8
1
100
AcDbLine
 10
454.710525
 20
699.546834
 30
0.0
 11
442.336156
 21
711.9212029999999
 31
0.0
  0
LINE
  5
20A
330
1E
100
AcDbEntity
  8
1
100
AcDbLine
 10
456.831845
 20
701.6681549999999
 30
0.0
 11
444.457477
 21
714.042523
 31
0.0
  0
ARC
  5
20B
330
1E
100
AcDbEntity
  8
1
100
AcDbCircle
 10
455.7711849999999
 20
700.6074949999999
 30
0.0
 40
1.5
100
AcDbArc
 50
225.0
 51
45.0
  0
ARC
  5
20C
330
1E
100
AcDbEntity
  8
1
100
AcDbCircle
 10
443.396816
 20
712.9818629999999
 30
0.0
 40
1.5
100
AcDbArc
 50
45.0
 51
225.0
  0
LINE
  5
20D
330
1E
100
AcDbEntity
  8
1
100
AcDbLine
 10
456.831845
 20
701.6681549999999
 30
0.0
 11
457.254305
 21
702.090614
 31
0.0
  0
LINE
  5
20E
330
1E
100
AcDbEntity
  8
1
100
AcDbLine
 10
444.457477
 20
714.042523
 30
0.0
 11
445.9625529999999
 21
715.5476
 31
0.0
  0
LINE
  5
20F
330
1E
100
AcDbEntity
  8
1
100
AcDbLine
 10
457.186878
 20
702.17097
 30
0.0
 11
445.938095
 21
715.576748
 31
0.0
  0
LINE
  5
210
330
1E
100
AcDbEntity
  8
1
100
AcDbLine
 10
459.485011
 20
704.099333
 30
0.0
 11
448.236228
 21
717.505111
 31
0.0
  0
ARC
  5
211
330
1E
100
AcDbEntity
  8
1
100
AcDbCircle
 10
458.335944
 20
703.1351519999999
 30
0.0
 40
1.5
100
AcDbArc
 50
220.0
 51
40.0
  0
ARC
  5
212
330
1E
100
AcDbEntity
  8
1
100
AcDbCircle
 10
447.0871609999999
 20
716.54093
 30
0.0
 40
1.5
100
AcDbArc
 50
40.0
 51
220.0
  0
LINE
  5
213
330
1E
100
AcDbEntity
  8
1
100
AcDbLine
 10
459.485011
 20
704.099333
 30
0.0
 11
459.9426829999999
 21
704.4833650000001
 31
0.0
  0
LINE
  5
214
330
1E
100
AcDbEntity
  8
1
100
AcDbLine
 10
448.236228
 20
717.505111
 30
0.0
 11
449.8667529999999
 21
718.873284
 31
0.0
  0
LINE
  5
215
330
1E
100
AcDbEntity
  8
1
100
AcDbLine
 10
459.882516
 20
704.569293
 30
0.0
 11
449.8449279999999
 21
718.904453
 31
0.0
  0
LINE
  5
216
330
1E
100
AcDbEntity
  8
1
100
AcDbLine
 10
462.339972
 20
706.290022
 30
0.0
 11
452.3023839999999
 21
720.625183
 31
0.0
  0
ARC
  5
217
330
1E
100
AcDbEntity
  8
1
100
AcDbCircle
 10
461.111244
 20
705.4296569999999
 30
0.0
 40
1.5
100
AcDbArc
 50
214.9999999999999
 51
35.0
  0
ARC
  5
218
330
1E
100
AcDbEntity
  8
1
100
AcDbCircle
 10
451.073656
 20
719.7648179999999
 30
0.0
 40
1.5
100
AcDbArc
 50
35.0
 51
214.9999999999999
  0
LINE
  5
219
330
1E
100
AcDbEntity
  8
1
100
AcDbLine
 10
462.339972
 20
706.290022
 30
0.0
 11
462.829373
 21
706.632704
 31
0.0
  0
LINE
  5
21A
330
1E
100
AcDbEntity
  8
1
100
AcDbLine
 10
452.3023839999999
 20
720.625183
 30
0.0
 11
454.0459489999999
 21
721.84604
 31
0.0
  0
LINE
  5
21B
330
1E
100
AcDbEntity
  8
1
100
AcDbLine
 10
462.776924
 20
706.723548
 30
0.0
 11
454.0269239999999
 21
721.878992
 31
0.0
  0
LINE
  5
21C
330
1E
100
AcDbEntity
  8
1
100
AcDbLine
 10
465.375
 20
708.223548
 30
0.0
 11
456.625
 21
723.378992
 31
0.0
  0
ARC
  5
21D
330
1E
100
AcDbEntity
  8
1
100
AcDbCircle
 10
464.0759619999999
 20
707.4735480000001
 30
0.0
 40
1.5
100
AcDbArc
 50
210.0
 51
30.0
  0
ARC
  5
21E
330
1E
100
AcDbEntity
  8
1
100
AcDbCircle
 10
455.325962
 20
722.628992
 30
0.0
 40
1.5
100
AcDbArc
 50
30.0
 51
210.0
  0
LINE
  5
21F
330
1E
100
AcDbEntity
  8
1
100
AcDbLine
 10
465.375
 20
708.223548
 30
0.0
 11
465.892405
 21
708.5222719999999
 31
0.0
  0
LINE
  5
220
330
1E
100
AcDbEntity
  8
1
100
AcDbLine
 10
456.625
 20
723.378992
 30
0.0
 11
458.4683349999999
 21
724.4432419999999
 31
0.0
  0
LINE
  5
221
330
1E
100
AcDbEntity
  8
1
100
AcDbLine
 10
465.848073
 20
708.617341
 30
0.0
 11
458.452254
 21
724.477728
 31
0.0
  0
LINE
  5
222
330
1E
100
AcDbEntity
  8
1
100
AcDbLine
 10
468.5669969999999
 20
709.8851959999999
 30
0.0
 11
461.1711769999999
 21
725.745582
 31
0.0
  0
ARC
  5
223
330
1E
100
AcDbEntity
  8
1
100
AcDbCircle
 10
467.2075349999999
 20
709.2512690000001
 30
0.0
 40
1.5
100
AcDbArc
 50
205.0
 51
25.0
  0
ARC
  5
224
330
1E
100
AcDbEntity
  8
1
100
AcDbCircle
 10
459.811715
 20
725.1116549999998
 30
0.0
 40
1.5
100
AcDbArc
 50
25.0
 51
205.0
  0
LINE
  5
225
330
1E
100
AcDbEntity
  8
1
100
AcDbLine
 10
468.5669969999999
 20
709.8851959999999
 30
0.0
 11
469.1084679999999
 21
710.137689
 31
0.0
  0
LINE
  5
226
330
1E
100
AcDbEntity
  8
1
100
AcDbLine
 10
461.1711769999999
 20
725.745582
 30
0.0
 11
463.1002529999999
 21
726.645125
 31
0.0
  0
LINE
  5
227
330
1E
100
AcDbEntity
  8
1
100
AcDbLine
 10
469.072591
 20
710.23626
 30
0.0
 11
463.0872389999999
 21
726.680881
 31
0.0
  0
LINE
  5
228
330
1E
100
AcDbEntity
  8
1
100
AcDbLine
 10
471.891669
 20
711.262321
 30
0.0
 11
465.906317
 21
727.706941
 31
0.0
  0
ARC
  5
229
330
1E
100
AcDbEntity
  8
1
100
AcDbCircle
 10
470.4821299999999
 20
710.7492900000001
 30
0.0
 40
1.5
100
AcDbArc
 50
200.0
 51
20.0
  0
ARC
  5
22A
330
1E
100
AcDbEntity
  8
1
100
AcDbCircle
 10
464.4967779999999
 20
727.193911
 30
0.0
 40
1.5
100
AcDbArc
 50
20.0
 51
200.0
  0
LINE
  5
22B
330
1E
100
AcDbEntity
  8
1
100
AcDbLine
 10
471.891669
 20
711.262321
 30
0.0
 11
472.453086
 21
711.4666599999999
 31
0.0
  0
LINE
  5
22C
330
1E
100
AcDbEntity
  8
1
100
AcDbLine
 10
465.906317
 20
727.706941
 30
0.0
 11
467.9064519999999
 21
728.434931
 31
0.0
  0
LINE
  5
22D
330
1E
100
AcDbEntity
  8
1
100
AcDbLine
 10
472.425937
 20
711.567983
 30
0.0
 11
467.896604
 21
728.4716849999999
 31
0.0
  0
LINE
  5
22E
330
1E
100
AcDbEntity
  8
1
100
AcDbLine
 10
475.3237139999999
 20
712.3444400000001
 30
0.0
 11
470.7943809999999
 21
729.248142
 31
0.0
  0
ARC
  5
22F
330
1E
100
AcDbEntity
  8
1
100
AcDbCircle
 10
473.874826
 20
711.956212
 30
0.0
 40
1.5
100
AcDbArc
 50
195.0
 51
15.0
  0
ARC
  5
230
330
1E
100
AcDbEntity
  8
1
100
AcDbCircle
 10
469.3454919999999
 20
728.859914
 30
0.0
 40
1.5
100
AcDbArc
 50
15.0
 51
195.0
  0
LINE
  5
231
330
1E
100
AcDbEntity
  8
1
100
AcDbLine
 10
475.3237139999999
 20
712.3444400000001
 30
0.0
 11
475.900805
 21
712.4990709999999
 31
0.0
  0
LINE
  5
232
330
1E
100
AcDbEntity
  8
1
100
AcDbLine
 10
470.7943809999999
 20
729.248142
 30
0.0
 11
472.850354
 21
729.7990379999999
 31
0.0
  0
LINE
  5
233
330
1E
100
AcDbEntity
  8
1
100
AcDbLine
 10
475.8825889999999
 20
712.602375
 30
0.0
 11
472.843746
 21
729.836511
 31
0.0
  0
LINE
  5
234
330
1E
100
AcDbEntity
  8
1
100
AcDbLine
 10
478.837013
 20
713.12332
 30
0.0
 11
475.79817
 21
730.3574549999999
 31
0.0
  0
ARC
  5
235
330
1E
100
AcDbEntity
  8
1
100
AcDbCircle
 10
477.3598009999999
 20
712.8628480000001
 30
0.0
 40
1.5
100
AcDbArc
 50
190.0
 51
10.0
  0
ARC
  5
236
330
1E
100
AcDbEntity
  8
1
100
AcDbCircle
 10
474.320958
 20
730.096983
 30
0.0
 40
1.5
100
AcDbArc
 50
10.0
 51
190.0
  0
LINE
  5
237
330
1E
100
AcDbEntity
  8
1
100
AcDbLine
 10
478.837013
 20
713.12332
 30
0.0
 11
479.425384
 21
713.227066
 31
0.0
  0
LINE
  5
238
330
1E
100
AcDbEntity
  8
1
100
AcDbLine
 10
475.79817
 20
730.3574549999999
 30
0.0
 11
477.894332
 21
730.727066
 31
0.0
  0
LINE
  5
239
330
1E
100
AcDbEntity
  8
1
100
AcDbLine
 10
479.416242
 20
713.3315639999999
 30
0.0
 11
477.891016
 21
730.7649709999999
 31
0.0
  0
LINE
  5
23A
330
1E
100
AcDbEntity
  8
1
100
AcDbLine
 10
482.4048259999999
 20
713.5930309999999
 30
0.0
 11
480.8796
 21
731.026439
 31
0.0
  0
ARC
  5
23B
330
1E
100
AcDbEntity
  8
1
100
AcDbCircle
 10
480.910534
 20
713.462298
 30
0.0
 40
1.5
100
AcDbArc
 50
185.0
 51
5.0
  0
ARC
  5
23C
330
1E
100
AcDbEntity
  8
1
100
AcDbCircle
 10
479.3853079999999
 20
730.895705
 30
0.0
 40
1.5
100
AcDbArc
 50
5.0
 51
185.0
  0
LINE
  5
23D
330
1E
100
AcDbEntity
  8
1
100
AcDbLine
 10
482.4048259999999
 20
713.5930309999999
 30
0.0
 11
483.0
 21
713.6451019999999
 31
0.0
  0
LINE
  5
23E
330
1E
100
AcDbEntity
  8
1
100
AcDbLine
 10
480.8796
 20
731.026439
 30
0.0
 11
483.0
 21
731.211949
 31
0.0
  0
LINE
  5
23F
330
1E
100
AcDbEntity
  8
1
100
AcDbLine
 10
483.0
 20
713.75
 30
0.0
 11
483.0
 21
731.25
 31
0.0
  0
LINE
  5
240
330
1E
100
AcDbEntity
  8
1
100
AcDbLine
 10
486.0
 20
713.75
 30
0.0
 11
486.0
 21
731.25
 31
0.0
  0
ARC
  5
241
330
1E
100
AcDbEntity
  8
1
100
AcDbCircle
 10
484.4999999999999
 20
713.75
 30
0.0
 40
1.5
100
AcDbArc
 50
180.0
 51
0.0
  0
ARC
  5
242
330
1E
100
AcDbEntity
  8
1
100
AcDbCircle
 10
484.4999999999999
 20
731.25
 30
0.0
 40
1.5
100
AcDbArc
 50
0.0
 51
180.0
  0
LINE
  5
243
330
1E
100
AcDbEntity
  8
1
100
AcDbLine
 10
486.0
 20
713.75
 30
0.0
 11
488.0
 21
713.75
 31
0.0
  0
LINE
  5
244
330
1E
100
AcDbEntity
  8
1
100
AcDbLine
 10
486.0
 20
731.25
 30
0.0
 11
488.0
 21
731.25
 31
0.0
  0
LINE
  5
245
330
1E
100
AcDbEntity
  8
1
100
AcDbLine
 10
488.0
 20
713.75
 30
0.0
 11
488.0
 21
731.25
 31
0.0
  0
LINE
  5
246
330
1E
100
AcDbEntity
  8
1
100
AcDbLine
 10
491.0
 20
713.75
 30
0.0
 11
491.0
 21
731.25
 31
0.0
  0
ARC
  5
247
330
1E
100
AcDbEntity
  8
1
100
AcDbCircle
 10
489.5
 20
713.75
 30
0.0
 40
1.5
100
AcDbArc
 50
180.0
 51
0.0
  0
ARC
  5
248
330
1E
100
AcDbEntity
  8
1
100
AcDbCircle
 10
489.5
 20
731.25
 30
0.0
 40
1.5
100
AcDbArc
 50
0.0
 51
180.0
  0
LINE
  5
249
330
1E
100
AcDbEntity
  8
1
100
AcDbLine
 10
491.0
 20
713.75
 30
0.0
 11
493.0
 21
713.75
 31
0.0
  0
LINE
  5
24A
330
1E
100
AcDbEntity
  8
1
100
AcDbLine
 10
491.0
 20
731.25
 30
0.0
 11
493.0
 21
731.25
 31
0.0
  0
LINE
  5
24B
330
1E
100
AcDbEntity
  8
1
100
AcDbLine
 10
493.0
 20
713.75
 30
0.0
 11
493.0
 21
731.25
 31
0.0
  0
LINE
  5
24C
330
1E
100
AcDbEntity
  8
1
100
AcDbLine
 10
496.0
 20
713.75
 30
0.0
 11
496.0
 21
731.25
 31
0.0
  0
ARC
  5
24D
330
1E
100
AcDbEntity
  8
1
100
AcDbCircle
 10
494.5
 20
713.75
 30
0.0
 40
1.5
100
AcDbArc
 50
180.0
 51
0.0
  0
ARC
  5
24E
330
1E
100
AcDbEntity
  8
1
100
AcDbCircle
 10
494.5
 20
731.25
 30
0.0
 40
1.5
100
AcDbArc
 50
0.0
 51
180.0
  0
LINE
  5
24F
330
1E
100
AcDbEntity
  8
1
100
AcDbLine
 10
496.0
 20
713.75
 30
0.0
 11
498.0
 21
713.75
 31
0.0
  0
LINE
  5
250
330
1E
100
AcDbEntity
  8
1
100
AcDbLine
 10
496.0
 20
731.25
 30
0.0
 11
498.0
 21
731.25
 31
0.0
  0
LINE
  5
251
330
1E
100
AcDbEntity
  8
1
100
AcDbLine
 10
498.0
 20
713.75
 30
0.0
 11
498.0
 21
731.25
 31
0.0
  0
LINE
  5
252
330
1E
100
AcDbEntity
  8
1
100
AcDbLine
 10
501.0
 20
713.75
 30
0.0
 11
501.0
 21
731.25
 31
0.0
  0
ARC
  5
253
330
1E
100
AcDbEntity
  8
1
100
AcDbCircle
 10
499.5
 20
713.75
 30
0.0
 40
1.5
100
AcDbArc
 50
180.0
 51
0.0
  0
ARC
  5
254
330
1E
100
AcDbEntity
  8
1
100
AcDbCircle
 10
499.5
 20
731.25
 30
0.0
 40
1.5
100
AcDbArc
 50
0.0
 51
180.0
  0
LINE
  5
255
330
1E
100
AcDbEntity
  8
1
100
AcDbLine
 10
501.0
 20
713.75
 30
0.0
 11
503.0
 21
713.75
 31
0.0
  0
LINE
  5
256
330
1E
100
AcDbEntity
  8
1
100
AcDbLine
 10
501.0
 20
731.25
 30
0.0
 11
503.0
 21
731.25
 31
0.0
  0
LINE
  5
257
330
1E
100
AcDbEntity
  8
1
100
AcDbLine
 10
503.0
 20
713.75
 30
0.0
 11
503.0
 21
731.25
 31
0.0
  0
LINE
  5
258
330
1E
100
AcDbEntity
  8
1
100
AcDbLine
 10
506.0
 20
713.75
 30
0.0
 11
506.0
 21
731.25
 31
0.0
  0
ARC
  5
259
330
1E
100
AcDbEntity
  8
1
100
AcDbCircle
 10
504.4999999999999
 20
713.75
 30
0.0
 40
1.5
100
AcDbArc
 50
180.0
 51
0.0
  0
ARC
  5
25A
330
1E
100
AcDbEntity
  8
1
100
AcDbCircle
 10
504.4999999999999
 20
731.25
 30
0.0
 40
1.5
100
AcDbArc
 50
0.0
 51
180.0
  0
LINE
  5
25B
330
1E
100
AcDbEntity
  8
1
100
AcDbLine
 10
506.0
 20
713.75
 30
0.0
 11
508.0
 21
713.75
 31
0.0
  0
LINE
  5
25C
330
1E
100
AcDbEntity
  8
1
100
AcDbLine
 10
506.0
 20
731.25
 30
0.0
 11
508.0
 21
731.25
 31
0.0
  0
LINE
  5
25D
330
1E
100
AcDbEntity
  8
1
100
AcDbLine
 10
508.0
 20
713.75
 30
0.0
 11
508.0
 21
731.25
 31
0.0
  0
LINE
  5
25E
330
1E
100
AcDbEntity
  8
1
100
AcDbLine
 10
513.0
 20
713.75
 30
0.0
 11
513.0
 21
731.25
 31
0.0
  0
ARC
  5
25F
330
1E
100
AcDbEntity
  8
1
100
AcDbCircle
 10
509.4999999999999
 20
713.75
 30
0.0
 40
1.5
100
AcDbArc
 50
180.0
 51
0.0
  0
ARC
  5
260
330
1E
100
AcDbEntity
  8
1
100
AcDbCircle
 10
509.4999999999999
 20
731.25
 30
0.0
 40
1.5
100
AcDbArc
 50
0.0
 51
180.0
  0
LINE
  5
261
330
1E
100
AcDbEntity
  8
1
100
AcDbLine
 10
511.0
 20
713.75
 30
0.0
 11
513.0
 21
713.75
 31
0.0
  0
LINE
  5
262
330
1E
100
AcDbEntity
  8
1
100
AcDbLine
 10
511.0
 20
731.25
 30
0.0
 11
513.0
 21
731.25
 31
0.0
  0
LWPOLYLINE
  5
263
330
1E
100
AcDbEntity
  8
1
  6
PHANTOM
100
AcDbPolyline
 90
       37
 70
     0
 43
0.0
 10
524.5
 20
747.5
 10
525.2175929999999
 20
746.6666669999999
 10
525.9225589999999
 20
745.833333
 10
526.6022729999999
 20
745.0
 10
528.363636
 20
742.4999999999999
 10
529.4431819999999
 20
740.0
 10
529.592593
 20
739.1666669999999
 10
529.6157410000001
 20
738.333333
 10
529.4999999999999
 20
737.5
 10
529.239583
 20
736.6666669999999
 10
528.8560609999999
 20
735.833333
 10
528.377841
 20
735.0
 10
526.6590909999999
 20
732.5
 10
525.110795
 20
730.0
 10
524.7651519999999
 20
729.1666669999999
 10
524.552083
 20
728.333333
 10
524.5
 20
727.5
 10
524.7063849999999
 20
726.3888889999999
 10
525.174648
 20
725.277778
 10
525.829966
 20
724.1666669999999
 10
528.1700339999999
 20
720.833333
 10
528.8253519999999
 20
719.722222
 10
529.293615
 20
718.611111
 10
529.4999999999999
 20
717.4999999999999
 10
529.3933779999999
 20
716.3888889999999
 10
529.0173959999999
 20
715.277778
 10
528.439394
 20
714.1666669999999
 10
526.1666669999999
 20
710.833333
 10
525.4539839999999
 20
709.7222219999999
 10
524.875982
 20
708.611111
 10
524.5
 20
707.5
 10
524.407407
 20
705.833333
 10
524.819865
 20
704.1666669999999
 10
525.636364
 20
702.5
 10
526.7558919999999
 20
700.833333
 10
528.077441
 20
699.1666669999999
 10
529.4999999999999
 20
697.5
  0
LWPOLYLINE
  5
28A
330
1E
100
AcDbEntity
  8
1
  6
PHANTOM
100
AcDbPolyline
 90
       37
 70
     0
 43
0.0
 10
534.4999999999999
 20
747.5
 10
535.2175929999999
 20
746.6666669999999
 10
535.922559
 20
745.833333
 10
536.602273
 20
745.0
 10
538.363636
 20
742.4999999999999
 10
539.443182
 20
740.0
 10
539.5925929999999
 20
739.1666669999999
 10
539.615741
 20
738.333333
 10
539.5
 20
737.5
 10
539.239583
 20
736.6666669999999
 10
538.8560609999999
 20
735.833333
 10
538.3778409999999
 20
735.0
 10
536.659091
 20
732.5
 10
535.110795
 20
730.0
 10
534.7651519999999
 20
729.1666669999999
 10
534.552083
 20
728.333333
 10
534.4999999999999
 20
727.5
 10
534.7063849999999
 20
726.3888889999999
 10
535.174648
 20
725.277778
 10
535.829966
 20
724.1666669999999
 10
538.170034
 20
720.833333
 10
538.8253519999999
 20
719.722222
 10
539.293615
 20
718.611111
 10
539.5
 20
717.4999999999999
 10
539.393378
 20
716.3888889999999
 10
539.0173959999999
 20
715.277778
 10
538.4393939999999
 20
714.1666669999999
 10
536.1666669999999
 20
710.833333
 10
535.453984
 20
709.7222219999999
 10
534.875982
 20
708.611111
 10
534.4999999999999
 20
707.5
 10
534.407407
 20
705.833333
 10
534.819865
 20
704.1666669999999
 10
535.6363639999999
 20
702.5
 10
536.755892
 20
700.833333
 10
538.0774409999999
 20
699.1666669999999
 10
539.5
 20
697.5
  0
LWPOLYLINE
  5
2B1
330
1E
100
AcDbEntity
  8
1
  6
PHANTOM
100
AcDbPolyline
 90
       37
 70
     0
 43
0.0
 10
261.5
 20
747.5
 10
262.217593
 20
746.6666669999999
 10
262.9225589999999
 20
745.833333
 10
263.6022729999999
 20
745.0
 10
265.3636359999999
 20
742.4999999999999
 10
266.4431819999999
 20
740.0
 10
266.592593
 20
739.1666669999999
 10
266.615741
 20
738.333333
 10
266.5
 20
737.5
 10
266.239583
 20
736.6666669999999
 10
265.8560609999999
 20
735.833333
 10
265.377841
 20
735.0
 10
263.6590909999999
 20
732.5
 10
262.110795
 20
730.0
 10
261.7651519999999
 20
729.1666669999999
 10
261.552083
 20
728.333333
 10
261.5
 20
727.5
 10
261.706385
 20
726.3888889999999
 10
262.174648
 20
725.277778
 10
262.829966
 20
724.1666669999999
 10
265.170034
 20
720.833333
 10
265.825352
 20
719.722222
 10
266.2936149999999
 20
718.611111
 10
266.5
 20
717.4999999999999
 10
266.3933779999999
 20
716.3888889999999
 10
266.0173959999999
 20
715.277778
 10
265.4393939999999
 20
714.1666669999999
 10
263.1666669999999
 20
710.833333
 10
262.453984
 20
709.7222219999999
 10
261.875982
 20
708.611111
 10
261.5
 20
707.5
 10
261.407407
 20
705.833333
 10
261.819865
 20
704.1666669999999
 10
262.636364
 20
702.5
 10
263.755892
 20
700.833333
 10
265.077441
 20
699.1666669999999
 10
266.5
 20
697.5
  0
LWPOLYLINE
  5
2D8
330
1E
100
AcDbEntity
  8
1
  6
PHANTOM
100
AcDbPolyline
 90
       37
 70
     0
 43
0.0
 10
271.4999999999999
 20
747.5
 10
272.217593
 20
746.6666669999999
 10
272.9225589999999
 20
745.833333
 10
273.6022729999999
 20
745.0
 10
275.3636359999999
 20
742.4999999999999
 10
276.4431819999999
 20
740.0
 10
276.592593
 20
739.1666669999999
 10
276.615741
 20
738.333333
 10
276.5
 20
737.5
 10
276.239583
 20
736.6666669999999
 10
275.8560609999999
 20
735.833333
 10
275.3778409999999
 20
735.0
 10
273.6590909999999
 20
732.5
 10
272.110795
 20
730.0
 10
271.7651519999999
 20
729.1666669999999
 10
271.552083
 20
728.333333
 10
271.4999999999999
 20
727.5
 10
271.706385
 20
726.3888889999999
 10
272.1746479999999
 20
725.277778
 10
272.829966
 20
724.1666669999999
 10
275.1700339999999
 20
720.833333
 10
275.825352
 20
719.722222
 10
276.2936149999999
 20
718.611111
 10
276.5
 20
717.4999999999999
 10
276.3933779999999
 20
716.3888889999999
 10
276.0173959999999
 20
715.277778
 10
275.4393939999999
 20
714.1666669999999
 10
273.1666669999999
 20
710.833333
 10
272.4539839999999
 20
709.7222219999999
 10
271.875982
 20
708.611111
 10
271.4999999999999
 20
707.5
 10
271.4074069999999
 20
705.833333
 10
271.819865
 20
704.1666669999999
 10
272.636364
 20
702.5
 10
273.755892
 20
700.833333
 10
275.077441
 20
699.1666669999999
 10
276.5
 20
697.5
  0
LINE
  5
2FF
330
1E
100
AcDbEntity
  8
1
100
AcDbLine
 10
361.25
 20
642.4999999999999
 30
0.0
 11
361.25
 21
644.5
 31
0.0
  0
LINE
  5
300
330
1E
100
AcDbEntity
  8
1
100
AcDbLine
 10
378.75
 20
642.4999999999999
 30
0.0
 11
378.75
 21
644.5
 31
0.0
  0
LINE
  5
301
330
1E
100
AcDbEntity
  8
1
100
AcDbLine
 10
361.25
 20
639.5
 30
0.0
 11
378.75
 21
639.5
 31
0.0
  0
LINE
  5
302
330
1E
100
AcDbEntity
  8
1
100
AcDbLine
 10
361.25
 20
642.4999999999999
 30
0.0
 11
378.75
 21
642.4999999999999
 31
0.0
  0
ARC
  5
303
330
1E
100
AcDbEntity
  8
1
100
AcDbCircle
 10
361.25
 20
641.0
 30
0.0
 40
1.5
100
AcDbArc
 50
90.0
 51
270.0
  0
ARC
  5
304
330
1E
100
AcDbEntity
  8
1
100
AcDbCircle
 10
378.75
 20
641.0
 30
0.0
 40
1.5
100
AcDbArc
 50
270.0
 51
90.0
  0
LINE
  5
305
330
1E
100
AcDbEntity
  8
1
100
AcDbLine
 10
361.25
 20
644.5
 30
0.0
 11
378.75
 21
644.5
 31
0.0
  0
LINE
  5
306
330
1E
100
AcDbEntity
  8
1
100
AcDbLine
 10
361.25
 20
647.5
 30
0.0
 11
378.75
 21
647.5
 31
0.0
  0
ARC
  5
307
330
1E
100
AcDbEntity
  8
1
100
AcDbCircle
 10
361.25
 20
646.0
 30
0.0
 40
1.5
100
AcDbArc
 50
90.0
 51
270.0
  0
ARC
  5
308
330
1E
100
AcDbEntity
  8
1
100
AcDbCircle
 10
378.75
 20
646.0
 30
0.0
 40
1.5
100
AcDbArc
 50
270.0
 51
90.0
  0
LINE
  5
309
330
1E
100
AcDbEntity
  8
1
100
AcDbLine
 10
361.25
 20
637.5
 30
0.0
 11
361.25
 21
639.5
 31
0.0
  0
LINE
  5
30A
330
1E
100
AcDbEntity
  8
1
100
AcDbLine
 10
378.75
 20
637.5
 30
0.0
 11
378.75
 21
639.5
 31
0.0
  0
LINE
  5
30B
330
1E
100
AcDbEntity
  8
1
100
AcDbLine
 10
361.25
 20
647.5
 30
0.0
 11
361.25
 21
649.5
 31
0.0
  0
LINE
  5
30C
330
1E
100
AcDbEntity
  8
1
100
AcDbLine
 10
378.75
 20
647.5
 30
0.0
 11
378.75
 21
649.5
 31
0.0
  0
LINE
  5
30D
330
1E
100
AcDbEntity
  8
1
100
AcDbLine
 10
361.25
 20
649.5
 30
0.0
 11
378.75
 21
649.5
 31
0.0
  0
LINE
  5
30E
330
1E
100
AcDbEntity
  8
1
100
AcDbLine
 10
361.25
 20
652.5
 30
0.0
 11
378.75
 21
652.5
 31
0.0
  0
ARC
  5
30F
330
1E
100
AcDbEntity
  8
1
100
AcDbCircle
 10
361.25
 20
651.0
 30
0.0
 40
1.5
100
AcDbArc
 50
90.0
 51
270.0
  0
ARC
  5
310
330
1E
100
AcDbEntity
  8
1
100
AcDbCircle
 10
378.75
 20
651.0
 30
0.0
 40
1.5
100
AcDbArc
 50
270.0
 51
90.0
  0
LINE
  5
311
330
1E
100
AcDbEntity
  8
1
100
AcDbLine
 10
361.25
 20
652.5
 30
0.0
 11
361.25
 21
654.4999999999999
 31
0.0
  0
LINE
  5
312
330
1E
100
AcDbEntity
  8
1
100
AcDbLine
 10
378.75
 20
652.5
 30
0.0
 11
378.75
 21
654.4999999999999
 31
0.0
  0
LINE
  5
313
330
1E
100
AcDbEntity
  8
1
100
AcDbLine
 10
361.25
 20
654.4999999999999
 30
0.0
 11
378.75
 21
654.4999999999999
 31
0.0
  0
LINE
  5
314
330
1E
100
AcDbEntity
  8
1
100
AcDbLine
 10
361.25
 20
657.5
 30
0.0
 11
378.75
 21
657.5
 31
0.0
  0
ARC
  5
315
330
1E
100
AcDbEntity
  8
1
100
AcDbCircle
 10
361.25
 20
656.0
 30
0.0
 40
1.5
100
AcDbArc
 50
90.0
 51
270.0
  0
ARC
  5
316
330
1E
100
AcDbEntity
  8
1
100
AcDbCircle
 10
378.75
 20
656.0
 30
0.0
 40
1.5
100
AcDbArc
 50
270.0
 51
90.0
  0
LINE
  5
317
330
1E
100
AcDbEntity
  8
1
100
AcDbLine
 10
361.25
 20
657.5
 30
0.0
 11
361.25
 21
659.4999999999999
 31
0.0
  0
LINE
  5
318
330
1E
100
AcDbEntity
  8
1
100
AcDbLine
 10
378.75
 20
657.5
 30
0.0
 11
378.75
 21
659.4999999999999
 31
0.0
  0
LINE
  5
319
330
1E
100
AcDbEntity
  8
1
100
AcDbLine
 10
361.25
 20
659.4999999999999
 30
0.0
 11
378.75
 21
659.4999999999999
 31
0.0
  0
LINE
  5
31A
330
1E
100
AcDbEntity
  8
1
100
AcDbLine
 10
361.25
 20
662.5
 30
0.0
 11
378.75
 21
662.5
 31
0.0
  0
ARC
  5
31B
330
1E
100
AcDbEntity
  8
1
100
AcDbCircle
 10
361.25
 20
661.0
 30
0.0
 40
1.5
100
AcDbArc
 50
90.0
 51
270.0
  0
ARC
  5
31C
330
1E
100
AcDbEntity
  8
1
100
AcDbCircle
 10
378.75
 20
661.0
 30
0.0
 40
1.5
100
AcDbArc
 50
270.0
 51
90.0
  0
LINE
  5
31D
330
1E
100
AcDbEntity
  8
1
100
AcDbLine
 10
361.25
 20
662.5
 30
0.0
 11
361.25
 21
664.5
 31
0.0
  0
LINE
  5
31E
330
1E
100
AcDbEntity
  8
1
100
AcDbLine
 10
378.75
 20
662.5
 30
0.0
 11
378.75
 21
664.5
 31
0.0
  0
LINE
  5
31F
330
1E
100
AcDbEntity
  8
1
100
AcDbLine
 10
214.0
 20
737.5
 30
0.0
 11
214.0
 21
707.5
 31
0.0
  0
LINE
  5
320
330
1E
100
AcDbEntity
  8
1
100
AcDbLine
 10
228.0
 20
737.5
 30
0.0
 11
228.0
 21
707.5
 31
0.0
  0
CIRCLE
  5
321
330
1E
100
AcDbEntity
  8
1
100
AcDbCircle
 10
221.0
 20
722.5
 30
0.0
 40
6.5
  0
LWPOLYLINE
  5
322
330
1E
100
AcDbEntity
  8
1
100
AcDbPolyline
 90
       29
 70
     1
 43
0.0
 10
227.4999999999999
 20
735.0
 10
227.433332
 20
735.5
 10
227.229047
 20
736.0
 10
226.872801
 20
736.5
 10
226.334237
 20
737.0
 10
225.5490519999999
 20
737.5
 10
224.348012
 20
738.0
 10
221.0
 20
738.4999999999999
 10
217.6519879999999
 20
738.0
 10
216.4509479999999
 20
737.5
 10
215.665763
 20
737.0
 10
215.127199
 20
736.5
 10
214.7709529999999
 20
736.0
 10
214.566668
 20
735.5
 10
214.5
 20
735.0
 10
214.566668
 20
734.4999999999999
 10
214.7709529999999
 20
734.0
 10
215.127199
 20
733.4999999999999
 10
215.665763
 20
733.0
 10
216.4509479999999
 20
732.5
 10
217.6519879999999
 20
732.0
 10
221.0
 20
731.5
 10
224.348012
 20
732.0
 10
225.5490519999999
 20
732.5
 10
226.334237
 20
733.0
 10
226.872801
 20
733.4999999999999
 10
227.229047
 20
734.0
 10
227.433332
 20
734.4999999999999
 10
227.4999999999999
 20
735.0
  0
ARC
  5
341
330
1E
100
AcDbEntity
  8
1
100
AcDbCircle
 10
221.0
 20
713.4999999999999
 30
0.0
 40
25.0
100
AcDbArc
 50
73.739795
 51
106.2602049999999
  0
LWPOLYLINE
  5
342
330
1E
100
AcDbEntity
  8
1
100
AcDbPolyline
 90
       29
 70
     1
 43
0.0
 10
227.4999999999999
 20
710.0
 10
227.433332
 20
710.5
 10
227.229047
 20
711.0
 10
226.872801
 20
711.5
 10
226.334237
 20
712.0
 10
225.5490519999999
 20
712.5
 10
224.348012
 20
713.0
 10
221.0
 20
713.4999999999999
 10
217.6519879999999
 20
713.0
 10
216.4509479999999
 20
712.5
 10
215.665763
 20
712.0
 10
215.127199
 20
711.5
 10
214.7709529999999
 20
711.0
 10
214.566668
 20
710.5
 10
214.5
 20
710.0
 10
214.566668
 20
709.4999999999999
 10
214.7709529999999
 20
709.0
 10
215.127199
 20
708.4999999999999
 10
215.665763
 20
708.0
 10
216.4509479999999
 20
707.5
 10
217.6519879999999
 20
707.0
 10
221.0
 20
706.5
 10
224.348012
 20
707.0
 10
225.5490519999999
 20
707.5
 10
226.334237
 20
708.0
 10
226.872801
 20
708.4999999999999
 10
227.229047
 20
709.0
 10
227.433332
 20
709.4999999999999
 10
227.4999999999999
 20
710.0
  0
ARC
  5
361
330
1E
100
AcDbEntity
  8
1
100
AcDbCircle
 10
221.0
 20
731.5
 30
0.0
 40
25.0
100
AcDbArc
 50
253.739795
 51
286.2602049999999
  0
LINE
  5
362
330
1E
100
AcDbEntity
  8
1
100
AcDbLine
 10
233.0
 20
731.25
 30
0.0
 11
235.0
 21
731.25
 31
0.0
  0
LINE
  5
363
330
1E
100
AcDbEntity
  8
1
100
AcDbLine
 10
233.0
 20
713.75
 30
0.0
 11
235.0
 21
713.75
 31
0.0
  0
LINE
  5
364
330
1E
100
AcDbEntity
  8
1
100
AcDbLine
 10
230.0
 20
731.25
 30
0.0
 11
230.0
 21
713.75
 31
0.0
  0
LINE
  5
365
330
1E
100
AcDbEntity
  8
1
100
AcDbLine
 10
233.0
 20
731.25
 30
0.0
 11
233.0
 21
713.75
 31
0.0
  0
ARC
  5
366
330
1E
100
AcDbEntity
  8
1
100
AcDbCircle
 10
231.4999999999999
 20
731.25
 30
0.0
 40
1.5
100
AcDbArc
 50
0.0
 51
180.0
  0
ARC
  5
367
330
1E
100
AcDbEntity
  8
1
100
AcDbCircle
 10
231.4999999999999
 20
713.75
 30
0.0
 40
1.5
100
AcDbArc
 50
180.0
 51
0.0
  0
LINE
  5
368
330
1E
100
AcDbEntity
  8
1
100
AcDbLine
 10
235.0
 20
731.25
 30
0.0
 11
235.0
 21
713.75
 31
0.0
  0
LINE
  5
369
330
1E
100
AcDbEntity
  8
1
100
AcDbLine
 10
238.0
 20
731.25
 30
0.0
 11
238.0
 21
713.75
 31
0.0
  0
ARC
  5
36A
330
1E
100
AcDbEntity
  8
1
100
AcDbCircle
 10
236.5
 20
731.25
 30
0.0
 40
1.5
100
AcDbArc
 50
0.0
 51
180.0
  0
ARC
  5
36B
330
1E
100
AcDbEntity
  8
1
100
AcDbCircle
 10
236.5
 20
713.75
 30
0.0
 40
1.5
100
AcDbArc
 50
180.0
 51
0.0
  0
LINE
  5
36C
330
1E
100
AcDbEntity
  8
1
100
AcDbLine
 10
228.0
 20
731.25
 30
0.0
 11
230.0
 21
731.25
 31
0.0
  0
LINE
  5
36D
330
1E
100
AcDbEntity
  8
1
100
AcDbLine
 10
228.0
 20
713.75
 30
0.0
 11
230.0
 21
713.75
 31
0.0
  0
LINE
  5
36E
330
1E
100
AcDbEntity
  8
1
100
AcDbLine
 10
238.0
 20
731.25
 30
0.0
 11
240.0
 21
731.25
 31
0.0
  0
LINE
  5
36F
330
1E
100
AcDbEntity
  8
1
100
AcDbLine
 10
238.0
 20
713.75
 30
0.0
 11
240.0
 21
713.75
 31
0.0
  0
LINE
  5
370
330
1E
100
AcDbEntity
  8
1
100
AcDbLine
 10
240.0
 20
731.25
 30
0.0
 11
240.0
 21
713.75
 31
0.0
  0
LINE
  5
371
330
1E
100
AcDbEntity
  8
1
100
AcDbLine
 10
243.0
 20
731.25
 30
0.0
 11
243.0
 21
713.75
 31
0.0
  0
ARC
  5
372
330
1E
100
AcDbEntity
  8
1
100
AcDbCircle
 10
241.5
 20
731.25
 30
0.0
 40
1.5
100
AcDbArc
 50
0.0
 51
180.0
  0
ARC
  5
373
330
1E
100
AcDbEntity
  8
1
100
AcDbCircle
 10
241.5
 20
713.75
 30
0.0
 40
1.5
100
AcDbArc
 50
180.0
 51
0.0
  0
LINE
  5
374
330
1E
100
AcDbEntity
  8
1
100
AcDbLine
 10
243.0
 20
731.25
 30
0.0
 11
245.0
 21
731.25
 31
0.0
  0
LINE
  5
375
330
1E
100
AcDbEntity
  8
1
100
AcDbLine
 10
243.0
 20
713.75
 30
0.0
 11
245.0
 21
713.75
 31
0.0
  0
LINE
  5
376
330
1E
100
AcDbEntity
  8
1
100
AcDbLine
 10
245.0
 20
731.25
 30
0.0
 11
245.0
 21
713.75
 31
0.0
  0
LINE
  5
377
330
1E
100
AcDbEntity
  8
1
100
AcDbLine
 10
248.0
 20
731.25
 30
0.0
 11
248.0
 21
713.75
 31
0.0
  0
ARC
  5
378
330
1E
100
AcDbEntity
  8
1
100
AcDbCircle
 10
246.4999999999999
 20
731.25
 30
0.0
 40
1.5
100
AcDbArc
 50
0.0
 51
180.0
  0
ARC
  5
379
330
1E
100
AcDbEntity
  8
1
100
AcDbCircle
 10
246.4999999999999
 20
713.75
 30
0.0
 40
1.5
100
AcDbArc
 50
180.0
 51
0.0
  0
LINE
  5
37A
330
1E
100
AcDbEntity
  8
1
100
AcDbLine
 10
248.0
 20
731.25
 30
0.0
 11
250.0
 21
731.25
 31
0.0
  0
LINE
  5
37B
330
1E
100
AcDbEntity
  8
1
100
AcDbLine
 10
248.0
 20
713.75
 30
0.0
 11
250.0
 21
713.75
 31
0.0
  0
LINE
  5
37C
330
1E
100
AcDbEntity
  8
1
100
AcDbLine
 10
250.0
 20
731.25
 30
0.0
 11
250.0
 21
713.75
 31
0.0
  0
LINE
  5
37D
330
1E
100
AcDbEntity
  8
1
100
AcDbLine
 10
253.0
 20
731.25
 30
0.0
 11
253.0
 21
713.75
 31
0.0
  0
ARC
  5
37E
330
1E
100
AcDbEntity
  8
1
100
AcDbCircle
 10
251.5
 20
731.25
 30
0.0
 40
1.5
100
AcDbArc
 50
0.0
 51
180.0
  0
ARC
  5
37F
330
1E
100
AcDbEntity
  8
1
100
AcDbCircle
 10
251.5
 20
713.75
 30
0.0
 40
1.5
100
AcDbArc
 50
180.0
 51
0.0
  0
LINE
  5
380
330
1E
100
AcDbEntity
  8
1
100
AcDbLine
 10
253.0
 20
731.25
 30
0.0
 11
255.0
 21
731.25
 31
0.0
  0
LINE
  5
381
330
1E
100
AcDbEntity
  8
1
100
AcDbLine
 10
253.0
 20
713.75
 30
0.0
 11
255.0
 21
713.75
 31
0.0
  0
LINE
  5
382
330
1E
100
AcDbEntity
  8
1
100
AcDbLine
 10
255.0
 20
731.25
 30
0.0
 11
255.0
 21
713.75
 31
0.0
  0
LINE
  5
383
330
1E
100
AcDbEntity
  8
1
100
AcDbLine
 10
258.0
 20
731.25
 30
0.0
 11
258.0
 21
713.75
 31
0.0
  0
ARC
  5
384
330
1E
100
AcDbEntity
  8
1
100
AcDbCircle
 10
256.4999999999999
 20
731.25
 30
0.0
 40
1.5
100
AcDbArc
 50
0.0
 51
180.0
  0
ARC
  5
385
330
1E
100
AcDbEntity
  8
1
100
AcDbCircle
 10
256.4999999999999
 20
713.75
 30
0.0
 40
1.5
100
AcDbArc
 50
180.0
 51
0.0
  0
LINE
  5
386
330
1E
100
AcDbEntity
  8
1
100
AcDbLine
 10
258.0
 20
731.25
 30
0.0
 11
260.0
 21
731.25
 31
0.0
  0
LINE
  5
387
330
1E
100
AcDbEntity
  8
1
100
AcDbLine
 10
258.0
 20
713.75
 30
0.0
 11
260.0
 21
713.75
 31
0.0
  0
LINE
  5
388
330
1E
100
AcDbEntity
  8
1
100
AcDbLine
 10
260.0
 20
731.25
 30
0.0
 11
260.0
 21
713.75
 31
0.0
  0
LINE
  5
389
330
1E
100
AcDbEntity
  8
1
100
AcDbLine
 10
263.0
 20
723.9100429999999
 30
0.0
 11
263.0
 21
713.75
 31
0.0
  0
ARC
  5
38A
330
1E
100
AcDbEntity
  8
1
100
AcDbCircle
 10
261.5
 20
731.25
 30
0.0
 40
1.5
100
AcDbArc
 50
9.719136999999999
 51
180.0
  0
ARC
  5
38B
330
1E
100
AcDbEntity
  8
1
100
AcDbCircle
 10
261.5
 20
713.75
 30
0.0
 40
1.5
100
AcDbArc
 50
180.0
 51
0.0
  0
LINE
  5
38C
330
1E
100
AcDbEntity
  8
1
100
AcDbLine
 10
283.0
 20
731.25
 30
0.0
 11
285.0
 21
731.25
 31
0.0
  0
LINE
  5
38D
330
1E
100
AcDbEntity
  8
1
100
AcDbLine
 10
283.0
 20
713.75
 30
0.0
 11
285.0
 21
713.75
 31
0.0
  0
LINE
  5
38E
330
1E
100
AcDbEntity
  8
1
100
AcDbLine
 10
285.0
 20
731.25
 30
0.0
 11
285.0
 21
713.75
 31
0.0
  0
LINE
  5
38F
330
1E
100
AcDbEntity
  8
1
100
AcDbLine
 10
288.0
 20
731.25
 30
0.0
 11
288.0
 21
713.75
 31
0.0
  0
ARC
  5
390
330
1E
100
AcDbEntity
  8
1
100
AcDbCircle
 10
286.5
 20
731.25
 30
0.0
 40
1.5
100
AcDbArc
 50
0.0
 51
180.0
  0
ARC
  5
391
330
1E
100
AcDbEntity
  8
1
100
AcDbCircle
 10
286.5
 20
713.75
 30
0.0
 40
1.5
100
AcDbArc
 50
180.0
 51
0.0
  0
LINE
  5
392
330
1E
100
AcDbEntity
  8
1
100
AcDbLine
 10
288.0
 20
731.25
 30
0.0
 11
290.0
 21
731.25
 31
0.0
  0
LINE
  5
393
330
1E
100
AcDbEntity
  8
1
100
AcDbLine
 10
288.0
 20
713.75
 30
0.0
 11
290.0
 21
713.75
 31
0.0
  0
LINE
  5
394
330
1E
100
AcDbEntity
  8
1
100
AcDbLine
 10
290.0
 20
731.25
 30
0.0
 11
290.0
 21
713.75
 31
0.0
  0
LINE
  5
395
330
1E
100
AcDbEntity
  8
1
100
AcDbLine
 10
295.0
 20
731.25
 30
0.0
 11
295.0
 21
713.75
 31
0.0
  0
ARC
  5
396
330
1E
100
AcDbEntity
  8
1
100
AcDbCircle
 10
291.5
 20
731.25
 30
0.0
 40
1.5
100
AcDbArc
 50
0.0
 51
180.0
  0
ARC
  5
397
330
1E
100
AcDbEntity
  8
1
100
AcDbCircle
 10
291.5
 20
713.75
 30
0.0
 40
1.5
100
AcDbArc
 50
180.0
 51
0.0
  0
LINE
  5
398
330
1E
100
AcDbEntity
  8
1
100
AcDbLine
 10
361.25
 20
664.5
 30
0.0
 11
378.75
 21
664.5
 31
0.0
  0
ARC
  5
399
330
1E
100
AcDbEntity
  8
1
100
AcDbCircle
 10
378.75
 20
666.0
 30
0.0
 40
1.5
100
AcDbArc
 50
270.0
 51
90.0
  0
LINE
  5
39A
330
1E
100
AcDbEntity
  8
1
100
AcDbLine
 10
361.25
 20
667.4999999999999
 30
0.0
 11
378.75
 21
667.4999999999999
 31
0.0
  0
ARC
  5
39B
330
1E
100
AcDbEntity
  8
1
100
AcDbCircle
 10
361.25
 20
666.0
 30
0.0
 40
1.5
100
AcDbArc
 50
90.0
 51
270.0
  0
LINE
  5
39C
330
1E
100
AcDbEntity
  8
1
100
AcDbLine
 10
361.25
 20
667.4999999999999
 30
0.0
 11
361.25
 21
669.5
 31
0.0
  0
LINE
  5
39D
330
1E
100
AcDbEntity
  8
1
100
AcDbLine
 10
378.75
 20
667.4999999999999
 30
0.0
 11
378.75
 21
669.5
 31
0.0
  0
LINE
  5
39E
330
1E
100
AcDbEntity
  8
1
100
AcDbLine
 10
361.25
 20
669.5
 30
0.0
 11
378.75
 21
669.5
 31
0.0
  0
LINE
  5
39F
330
1E
100
AcDbEntity
  8
1
100
AcDbLine
 10
361.25
 20
672.5
 30
0.0
 11
378.75
 21
672.5
 31
0.0
  0
ARC
  5
3A0
330
1E
100
AcDbEntity
  8
1
100
AcDbCircle
 10
361.25
 20
671.0
 30
0.0
 40
1.5
100
AcDbArc
 50
90.0
 51
270.0
  0
ARC
  5
3A1
330
1E
100
AcDbEntity
  8
1
100
AcDbCircle
 10
378.75
 20
671.0
 30
0.0
 40
1.5
100
AcDbArc
 50
270.0
 51
90.0
  0
LINE
  5
3A2
330
1E
100
AcDbEntity
  8
1
100
AcDbLine
 10
361.25
 20
672.5
 30
0.0
 11
361.25
 21
673.0974480000001
 31
0.0
  0
LINE
  5
3A3
330
1E
100
AcDbEntity
  8
1
100
AcDbLine
 10
378.75
 20
672.5
 30
0.0
 11
378.75
 21
674.628499
 31
0.0
  0
LINE
  5
3A4
330
1E
100
AcDbEntity
  8
1
100
AcDbLine
 10
361.354499
 20
673.1065899999999
 30
0.0
 11
378.787906
 21
674.6318160000001
 31
0.0
  0
LINE
  5
3A5
330
1E
100
AcDbEntity
  8
1
100
AcDbLine
 10
361.093031
 20
676.095174
 30
0.0
 11
378.526439
 21
677.6203999999999
 31
0.0
  0
ARC
  5
3A6
330
1E
100
AcDbEntity
  8
1
100
AcDbCircle
 10
361.223765
 20
674.6008820000001
 30
0.0
 40
1.5
100
AcDbArc
 50
95.0
 51
275.0
  0
ARC
  5
3A7
330
1E
100
AcDbEntity
  8
1
100
AcDbCircle
 10
378.6571719999999
 20
676.126108
 30
0.0
 40
1.5
100
AcDbArc
 50
275.0
 51
95.0
  0
LINE
  5
3A8
330
1E
100
AcDbEntity
  8
1
100
AcDbLine
 10
361.093031
 20
676.095174
 30
0.0
 11
361.04096
 21
676.6903489999999
 31
0.0
  0
LINE
  5
3A9
330
1E
100
AcDbEntity
  8
1
100
AcDbLine
 10
378.526439
 20
677.6203999999999
 30
0.0
 11
378.3409279999999
 21
679.7408
 31
0.0
  0
LINE
  5
3AA
330
1E
100
AcDbEntity
  8
1
100
AcDbLine
 10
361.144264
 20
676.7085639999999
 30
0.0
 11
378.3784
 21
679.747407
 31
0.0
  0
LINE
  5
3AB
330
1E
100
AcDbEntity
  8
1
100
AcDbLine
 10
360.62332
 20
679.662987
 30
0.0
 11
377.8574549999999
 21
682.7018299999999
 31
0.0
  0
ARC
  5
3AC
330
1E
100
AcDbEntity
  8
1
100
AcDbCircle
 10
360.8837919999999
 20
678.185776
 30
0.0
 40
1.5
100
AcDbArc
 50
100.0
 51
280.0
  0
ARC
  5
3AD
330
1E
100
AcDbEntity
  8
1
100
AcDbCircle
 10
378.1179279999999
 20
681.224619
 30
0.0
 40
1.5
100
AcDbArc
 50
280.0
 51
100.0
  0
LINE
  5
3AE
330
1E
100
AcDbEntity
  8
1
100
AcDbLine
 10
360.62332
 20
679.662987
 30
0.0
 11
360.519574
 21
680.251359
 31
0.0
  0
LINE
  5
3AF
330
1E
100
AcDbEntity
  8
1
100
AcDbLine
 10
377.8574549999999
 20
682.7018299999999
 30
0.0
 11
377.487845
 21
684.797993
 31
0.0
  0
LINE
  5
3B0
330
1E
100
AcDbEntity
  8
1
100
AcDbLine
 10
360.620897
 20
680.2785079999999
 30
0.0
 11
377.524599
 21
684.807841
 31
0.0
  0
LINE
  5
3B1
330
1E
100
AcDbEntity
  8
1
100
AcDbLine
 10
359.8444399999999
 20
683.176286
 30
0.0
 11
376.7481419999999
 21
687.7056190000001
 31
0.0
  0
ARC
  5
3B2
330
1E
100
AcDbEntity
  8
1
100
AcDbCircle
 10
360.2326689999999
 20
681.727397
 30
0.0
 40
1.5
100
AcDbArc
 50
105.0
 51
285.0
  0
ARC
  5
3B3
330
1E
100
AcDbEntity
  8
1
100
AcDbCircle
 10
377.136371
 20
686.2567299999999
 30
0.0
 40
1.5
100
AcDbArc
 50
285.0
 51
105.0
  0
LINE
  5
3B4
330
1E
100
AcDbEntity
  8
1
100
AcDbLine
 10
359.8444399999999
 20
683.176286
 30
0.0
 11
359.6898089999999
 21
683.753376
 31
0.0
  0
LINE
  5
3B5
330
1E
100
AcDbEntity
  8
1
100
AcDbLine
 10
376.7481419999999
 20
687.7056190000001
 30
0.0
 11
376.1972459999999
 21
689.7615919999999
 31
0.0
  0
LINE
  5
3B6
330
1E
100
AcDbEntity
  8
1
100
AcDbLine
 10
359.788381
 20
683.789253
 30
0.0
 11
376.233002
 21
689.7746059999999
 31
0.0
  0
LINE
  5
3B7
330
1E
100
AcDbEntity
  8
1
100
AcDbLine
 10
358.7623209999999
 20
686.6083309999999
 30
0.0
 11
375.206941
 21
692.593683
 31
0.0
  0
ARC
  5
3B8
330
1E
100
AcDbEntity
  8
1
100
AcDbCircle
 10
359.275351
 20
685.198792
 30
0.0
 40
1.5
100
AcDbArc
 50
110.0
 51
290.0
  0
ARC
  5
3B9
330
1E
100
AcDbEntity
  8
1
100
AcDbCircle
 10
375.719972
 20
691.184144
 30
0.0
 40
1.5
100
AcDbArc
 50
290.0
 51
110.0
  0
LINE
  5
3BA
330
1E
100
AcDbEntity
  8
1
100
AcDbLine
 10
358.7623209999999
 20
686.6083309999999
 30
0.0
 11
358.557981
 21
687.169748
 31
0.0
  0
LINE
  5
3BB
330
1E
100
AcDbEntity
  8
1
100
AcDbLine
 10
375.206941
 20
692.593683
 30
0.0
 11
374.4789519999999
 21
694.593819
 31
0.0
  0
LINE
  5
3BC
330
1E
100
AcDbEntity
  8
1
100
AcDbLine
 10
358.653051
 20
687.2140799999999
 30
0.0
 11
374.513437
 21
694.6099
 31
0.0
  0
LINE
  5
3BD
330
1E
100
AcDbEntity
  8
1
100
AcDbLine
 10
357.385196
 20
689.9330029999999
 30
0.0
 11
373.2455819999999
 21
697.328823
 31
0.0
  0
ARC
  5
3BE
330
1E
100
AcDbEntity
  8
1
100
AcDbCircle
 10
358.019124
 20
688.5735419999999
 30
0.0
 40
1.5
100
AcDbArc
 50
115.0
 51
295.0
  0
ARC
  5
3BF
330
1E
100
AcDbEntity
  8
1
100
AcDbCircle
 10
373.8795099999999
 20
695.969361
 30
0.0
 40
1.5
100
AcDbArc
 50
295.0
 51
115.0
  0
LINE
  5
3C0
330
1E
100
AcDbEntity
  8
1
100
AcDbLine
 10
357.385196
 20
689.9330029999999
 30
0.0
 11
357.1327039999999
 21
690.4744749999999
 31
0.0
  0
LINE
  5
3C1
330
1E
100
AcDbEntity
  8
1
100
AcDbLine
 10
373.2455819999999
 20
697.328823
 30
0.0
 11
372.34604
 21
699.2578990000001
 31
0.0
  0
LINE
  5
3C2
330
1E
100
AcDbEntity
  8
1
100
AcDbLine
 10
357.2235479999999
 20
690.5269239999999
 30
0.0
 11
372.3789919999999
 21
699.276924
 31
0.0
  0
LINE
  5
3C3
330
1E
100
AcDbEntity
  8
1
100
AcDbLine
 10
355.723548
 20
693.125
 30
0.0
 11
370.878992
 21
701.8749999999999
 31
0.0
  0
ARC
  5
3C4
330
1E
100
AcDbEntity
  8
1
100
AcDbCircle
 10
356.4735479999999
 20
691.825962
 30
0.0
 40
1.5
100
AcDbArc
 50
119.9999999999999
 51
300.0
  0
ARC
  5
3C5
330
1E
100
AcDbEntity
  8
1
100
AcDbCircle
 10
371.6289919999999
 20
700.575962
 30
0.0
 40
1.5
100
AcDbArc
 50
300.0
 51
119.9999999999999
  0
LINE
  5
3C6
330
1E
100
AcDbEntity
  8
1
100
AcDbLine
 10
355.723548
 20
693.125
 30
0.0
 11
355.424824
 21
693.6424049999999
 31
0.0
  0
LINE
  5
3C7
330
1E
100
AcDbEntity
  8
1
100
AcDbLine
 10
370.878992
 20
701.8749999999999
 30
0.0
 11
369.814743
 21
703.7183349999999
 31
0.0
  0
LINE
  5
3C8
330
1E
100
AcDbEntity
  8
1
100
AcDbLine
 10
355.5107509999999
 20
693.7025719999999
 30
0.0
 11
369.8459119999999
 21
703.7401599999999
 31
0.0
  0
LINE
  5
3C9
330
1E
100
AcDbEntity
  8
1
100
AcDbLine
 10
353.790022
 20
696.1600279999999
 30
0.0
 11
368.1251829999999
 21
706.197616
 31
0.0
  0
ARC
  5
3CA
330
1E
100
AcDbEntity
  8
1
100
AcDbCircle
 10
354.6503859999999
 20
694.9313
 30
0.0
 40
1.5
100
AcDbArc
 50
125.0
 51
305.0
  0
ARC
  5
3CB
330
1E
100
AcDbEntity
  8
1
100
AcDbCircle
 10
368.9855469999999
 20
704.9688879999999
 30
0.0
 40
1.5
100
AcDbArc
 50
305.0
 51
125.0
  0
LINE
  5
3CC
330
1E
100
AcDbEntity
  8
1
100
AcDbLine
 10
353.790022
 20
696.1600279999999
 30
0.0
 11
353.4473399999999
 21
696.649429
 31
0.0
  0
LINE
  5
3CD
330
1E
100
AcDbEntity
  8
1
100
AcDbLine
 10
368.1251829999999
 20
706.197616
 30
0.0
 11
366.9043249999999
 21
707.94118
 31
0.0
  0
LINE
  5
3CE
330
1E
100
AcDbEntity
  8
1
100
AcDbLine
 10
353.527696
 20
696.716856
 30
0.0
 11
366.933474
 21
707.965639
 31
0.0
  0
LINE
  5
3CF
330
1E
100
AcDbEntity
  8
1
100
AcDbLine
 10
351.599333
 20
699.014989
 30
0.0
 11
365.005111
 21
710.263772
 31
0.0
  0
ARC
  5
3D0
330
1E
100
AcDbEntity
  8
1
100
AcDbCircle
 10
352.5635149999999
 20
697.8659219999999
 30
0.0
 40
1.5
100
AcDbArc
 50
130.0
 51
310.0
  0
ARC
  5
3D1
330
1E
100
AcDbEntity
  8
1
100
AcDbCircle
 10
365.9692919999999
 20
709.114705
 30
0.0
 40
1.5
100
AcDbArc
 50
310.0
 51
130.0
  0
LINE
  5
3D2
330
1E
100
AcDbEntity
  8
1
100
AcDbLine
 10
351.599333
 20
699.014989
 30
0.0
 11
351.2153009999999
 21
699.472661
 31
0.0
  0
LINE
  5
3D3
330
1E
100
AcDbEntity
  8
1
100
AcDbLine
 10
365.005111
 20
710.263772
 30
0.0
 11
363.636938
 21
711.8942969999999
 31
0.0
  0
LINE
  5
3D4
330
1E
100
AcDbEntity
  8
1
100
AcDbLine
 10
351.289475
 20
699.546834
 30
0.0
 11
363.663844
 21
711.9212029999999
 31
0.0
  0
LINE
  5
3D5
330
1E
100
AcDbEntity
  8
1
100
AcDbLine
 10
349.1681549999999
 20
701.6681549999999
 30
0.0
 11
361.542523
 21
714.042523
 31
0.0
  0
ARC
  5
3D6
330
1E
100
AcDbEntity
  8
1
100
AcDbCircle
 10
350.228815
 20
700.6074949999999
 30
0.0
 40
1.5
100
AcDbArc
 50
135.0
 51
315.0
  0
ARC
  5
3D7
330
1E
100
AcDbEntity
  8
1
100
AcDbCircle
 10
362.603184
 20
712.9818629999999
 30
0.0
 40
1.5
100
AcDbArc
 50
315.0
 51
135.0
  0
LINE
  5
3D8
330
1E
100
AcDbEntity
  8
1
100
AcDbLine
 10
349.1681549999999
 20
701.6681549999999
 30
0.0
 11
348.745695
 21
702.090614
 31
0.0
  0
LINE
  5
3D9
330
1E
100
AcDbEntity
  8
1
100
AcDbLine
 10
361.542523
 20
714.042523
 30
0.0
 11
360.037447
 21
715.5476
 31
0.0
  0
LINE
  5
3DA
330
1E
100
AcDbEntity
  8
1
100
AcDbLine
 10
348.813122
 20
702.17097
 30
0.0
 11
360.0619049999999
 21
715.576748
 31
0.0
  0
LINE
  5
3DB
330
1E
100
AcDbEntity
  8
1
100
AcDbLine
 10
346.514989
 20
704.099333
 30
0.0
 11
357.763772
 21
717.505111
 31
0.0
  0
ARC
  5
3DC
330
1E
100
AcDbEntity
  8
1
100
AcDbCircle
 10
347.664056
 20
703.1351519999999
 30
0.0
 40
1.5
100
AcDbArc
 50
140.0
 51
320.0
  0
ARC
  5
3DD
330
1E
100
AcDbEntity
  8
1
100
AcDbCircle
 10
358.912839
 20
716.54093
 30
0.0
 40
1.5
100
AcDbArc
 50
320.0
 51
140.0
  0
LINE
  5
3DE
330
1E
100
AcDbEntity
  8
1
100
AcDbLine
 10
346.514989
 20
704.099333
 30
0.0
 11
346.0573169999999
 21
704.4833650000001
 31
0.0
  0
LINE
  5
3DF
330
1E
100
AcDbEntity
  8
1
100
AcDbLine
 10
357.763772
 20
717.505111
 30
0.0
 11
356.133247
 21
718.873284
 31
0.0
  0
LINE
  5
3E0
330
1E
100
AcDbEntity
  8
1
100
AcDbLine
 10
346.1174839999999
 20
704.569293
 30
0.0
 11
356.155072
 21
718.904453
 31
0.0
  0
LINE
  5
3E1
330
1E
100
AcDbEntity
  8
1
100
AcDbLine
 10
343.6600279999999
 20
706.290022
 30
0.0
 11
353.697616
 21
720.625183
 31
0.0
  0
ARC
  5
3E2
330
1E
100
AcDbEntity
  8
1
100
AcDbCircle
 10
344.888756
 20
705.4296569999999
 30
0.0
 40
1.5
100
AcDbArc
 50
145.0
 51
325.0
  0
ARC
  5
3E3
330
1E
100
AcDbEntity
  8
1
100
AcDbCircle
 10
354.9263439999999
 20
719.7648179999999
 30
0.0
 40
1.5
100
AcDbArc
 50
325.0
 51
145.0
  0
LINE
  5
3E4
330
1E
100
AcDbEntity
  8
1
100
AcDbLine
 10
343.6600279999999
 20
706.290022
 30
0.0
 11
343.170627
 21
706.632704
 31
0.0
  0
LINE
  5
3E5
330
1E
100
AcDbEntity
  8
1
100
AcDbLine
 10
353.697616
 20
720.625183
 30
0.0
 11
351.954051
 21
721.84604
 31
0.0
  0
LINE
  5
3E6
330
1E
100
AcDbEntity
  8
1
100
AcDbLine
 10
343.2230759999999
 20
706.723548
 30
0.0
 11
351.9730759999999
 21
721.878992
 31
0.0
  0
LINE
  5
3E7
330
1E
100
AcDbEntity
  8
1
100
AcDbLine
 10
340.625
 20
708.223548
 30
0.0
 11
349.3749999999999
 21
723.378992
 31
0.0
  0
ARC
  5
3E8
330
1E
100
AcDbEntity
  8
1
100
AcDbCircle
 10
341.924038
 20
707.4735480000001
 30
0.0
 40
1.5
100
AcDbArc
 50
150.0
 51
330.0
  0
ARC
  5
3E9
330
1E
100
AcDbEntity
  8
1
100
AcDbCircle
 10
350.674038
 20
722.628992
 30
0.0
 40
1.5
100
AcDbArc
 50
330.0
 51
150.0
  0
LINE
  5
3EA
330
1E
100
AcDbEntity
  8
1
100
AcDbLine
 10
340.625
 20
708.223548
 30
0.0
 11
340.107595
 21
708.5222719999999
 31
0.0
  0
LINE
  5
3EB
330
1E
100
AcDbEntity
  8
1
100
AcDbLine
 10
349.3749999999999
 20
723.378992
 30
0.0
 11
347.5316649999999
 21
724.4432419999999
 31
0.0
  0
LINE
  5
3EC
330
1E
100
AcDbEntity
  8
1
100
AcDbLine
 10
340.151927
 20
708.617341
 30
0.0
 11
347.547746
 21
724.477728
 31
0.0
  0
LINE
  5
3ED
330
1E
100
AcDbEntity
  8
1
100
AcDbLine
 10
337.4330029999999
 20
709.8851959999999
 30
0.0
 11
344.828823
 21
725.745582
 31
0.0
  0
ARC
  5
3EE
330
1E
100
AcDbEntity
  8
1
100
AcDbCircle
 10
338.7924649999999
 20
709.2512690000001
 30
0.0
 40
1.5
100
AcDbArc
 50
155.0
 51
335.0
  0
ARC
  5
3EF
330
1E
100
AcDbEntity
  8
1
100
AcDbCircle
 10
346.188285
 20
725.1116549999998
 30
0.0
 40
1.5
100
AcDbArc
 50
335.0
 51
155.0
  0
LINE
  5
3F0
330
1E
100
AcDbEntity
  8
1
100
AcDbLine
 10
337.4330029999999
 20
709.8851959999999
 30
0.0
 11
336.8915319999999
 21
710.137689
 31
0.0
  0
LINE
  5
3F1
330
1E
100
AcDbEntity
  8
1
100
AcDbLine
 10
344.828823
 20
725.745582
 30
0.0
 11
342.899747
 21
726.645125
 31
0.0
  0
LINE
  5
3F2
330
1E
100
AcDbEntity
  8
1
100
AcDbLine
 10
336.927409
 20
710.23626
 30
0.0
 11
342.912761
 21
726.680881
 31
0.0
  0
LINE
  5
3F3
330
1E
100
AcDbEntity
  8
1
100
AcDbLine
 10
334.108331
 20
711.262321
 30
0.0
 11
340.093683
 21
727.706941
 31
0.0
  0
ARC
  5
3F4
330
1E
100
AcDbEntity
  8
1
100
AcDbCircle
 10
335.51787
 20
710.7492900000001
 30
0.0
 40
1.5
100
AcDbArc
 50
160.0
 51
340.0
  0
ARC
  5
3F5
330
1E
100
AcDbEntity
  8
1
100
AcDbCircle
 10
341.503222
 20
727.193911
 30
0.0
 40
1.5
100
AcDbArc
 50
340.0
 51
160.0
  0
LINE
  5
3F6
330
1E
100
AcDbEntity
  8
1
100
AcDbLine
 10
334.108331
 20
711.262321
 30
0.0
 11
333.546914
 21
711.4666599999999
 31
0.0
  0
LINE
  5
3F7
330
1E
100
AcDbEntity
  8
1
100
AcDbLine
 10
340.093683
 20
727.706941
 30
0.0
 11
338.093548
 21
728.434931
 31
0.0
  0
LINE
  5
3F8
330
1E
100
AcDbEntity
  8
1
100
AcDbLine
 10
333.5740629999999
 20
711.567983
 30
0.0
 11
338.1033959999999
 21
728.4716849999999
 31
0.0
  0
LINE
  5
3F9
330
1E
100
AcDbEntity
  8
1
100
AcDbLine
 10
330.676286
 20
712.3444400000001
 30
0.0
 11
335.205619
 21
729.248142
 31
0.0
  0
ARC
  5
3FA
330
1E
100
AcDbEntity
  8
1
100
AcDbCircle
 10
332.125174
 20
711.956212
 30
0.0
 40
1.5
100
AcDbArc
 50
165.0
 51
345.0
  0
ARC
  5
3FB
330
1E
100
AcDbEntity
  8
1
100
AcDbCircle
 10
336.654508
 20
728.859914
 30
0.0
 40
1.5
100
AcDbArc
 50
345.0
 51
165.0
  0
LINE
  5
3FC
330
1E
100
AcDbEntity
  8
1
100
AcDbLine
 10
330.676286
 20
712.3444400000001
 30
0.0
 11
330.099195
 21
712.4990709999999
 31
0.0
  0
LINE
  5
3FD
330
1E
100
AcDbEntity
  8
1
100
AcDbLine
 10
335.205619
 20
729.248142
 30
0.0
 11
333.149646
 21
729.7990379999999
 31
0.0
  0
LINE
  5
3FE
330
1E
100
AcDbEntity
  8
1
100
AcDbLine
 10
330.117411
 20
712.602375
 30
0.0
 11
333.156254
 21
729.836511
 31
0.0
  0
LINE
  5
3FF
330
1E
100
AcDbEntity
  8
1
100
AcDbLine
 10
327.1629869999999
 20
713.12332
 30
0.0
 11
330.2018299999999
 21
730.3574549999999
 31
0.0
  0
ARC
  5
400
330
1E
100
AcDbEntity
  8
1
100
AcDbCircle
 10
328.6401989999999
 20
712.8628480000001
 30
0.0
 40
1.5
100
AcDbArc
 50
170.0
 51
350.0
  0
ARC
  5
401
330
1E
100
AcDbEntity
  8
1
100
AcDbCircle
 10
331.6790419999999
 20
730.096983
 30
0.0
 40
1.5
100
AcDbArc
 50
350.0
 51
170.0
  0
LINE
  5
402
330
1E
100
AcDbEntity
  8
1
100
AcDbLine
 10
327.1629869999999
 20
713.12332
 30
0.0
 11
326.5746159999999
 21
713.227066
 31
0.0
  0
LINE
  5
403
330
1E
100
AcDbEntity
  8
1
100
AcDbLine
 10
330.2018299999999
 20
730.3574549999999
 30
0.0
 11
328.105668
 21
730.727066
 31
0.0
  0
LINE
  5
404
330
1E
100
AcDbEntity
  8
1
100
AcDbLine
 10
326.5837579999999
 20
713.3315639999999
 30
0.0
 11
328.1089839999999
 21
730.7649709999999
 31
0.0
  0
LINE
  5
405
330
1E
100
AcDbEntity
  8
1
100
AcDbLine
 10
323.595174
 20
713.5930309999999
 30
0.0
 11
325.1204
 21
731.026439
 31
0.0
  0
ARC
  5
406
330
1E
100
AcDbEntity
  8
1
100
AcDbCircle
 10
325.089466
 20
713.462298
 30
0.0
 40
1.5
100
AcDbArc
 50
175.0
 51
355.0
  0
ARC
  5
407
330
1E
100
AcDbEntity
  8
1
100
AcDbCircle
 10
326.614692
 20
730.895705
 30
0.0
 40
1.5
100
AcDbArc
 50
355.0
 51
175.0
  0
LINE
  5
408
330
1E
100
AcDbEntity
  8
1
100
AcDbLine
 10
323.595174
 20
713.5930309999999
 30
0.0
 11
323.0
 21
713.6451019999999
 31
0.0
  0
LINE
  5
409
330
1E
100
AcDbEntity
  8
1
100
AcDbLine
 10
325.1204
 20
731.026439
 30
0.0
 11
323.0
 21
731.211949
 31
0.0
  0
LINE
  5
40A
330
1E
100
AcDbEntity
  8
1
100
AcDbLine
 10
323.0
 20
713.75
 30
0.0
 11
323.0
 21
731.25
 31
0.0
  0
LINE
  5
40B
330
1E
100
AcDbEntity
  8
1
100
AcDbLine
 10
320.0
 20
713.75
 30
0.0
 11
320.0
 21
731.25
 31
0.0
  0
ARC
  5
40C
330
1E
100
AcDbEntity
  8
1
100
AcDbCircle
 10
321.4999999999999
 20
713.75
 30
0.0
 40
1.5
100
AcDbArc
 50
180.0
 51
0.0
  0
ARC
  5
40D
330
1E
100
AcDbEntity
  8
1
100
AcDbCircle
 10
321.4999999999999
 20
731.25
 30
0.0
 40
1.5
100
AcDbArc
 50
0.0
 51
180.0
  0
LINE
  5
40E
330
1E
100
AcDbEntity
  8
1
100
AcDbLine
 10
320.0
 20
713.75
 30
0.0
 11
318.0
 21
713.75
 31
0.0
  0
LINE
  5
40F
330
1E
100
AcDbEntity
  8
1
100
AcDbLine
 10
320.0
 20
731.25
 30
0.0
 11
318.0
 21
731.25
 31
0.0
  0
LINE
  5
410
330
1E
100
AcDbEntity
  8
1
100
AcDbLine
 10
318.0
 20
713.75
 30
0.0
 11
318.0
 21
731.25
 31
0.0
  0
LINE
  5
411
330
1E
100
AcDbEntity
  8
1
100
AcDbLine
 10
315.0
 20
713.75
 30
0.0
 11
315.0
 21
731.25
 31
0.0
  0
ARC
  5
412
330
1E
100
AcDbEntity
  8
1
100
AcDbCircle
 10
316.5
 20
713.75
 30
0.0
 40
1.5
100
AcDbArc
 50
180.0
 51
0.0
  0
ARC
  5
413
330
1E
100
AcDbEntity
  8
1
100
AcDbCircle
 10
316.5
 20
731.25
 30
0.0
 40
1.5
100
AcDbArc
 50
0.0
 51
180.0
  0
LINE
  5
414
330
1E
100
AcDbEntity
  8
1
100
AcDbLine
 10
315.0
 20
713.75
 30
0.0
 11
313.0
 21
713.75
 31
0.0
  0
LINE
  5
415
330
1E
100
AcDbEntity
  8
1
100
AcDbLine
 10
315.0
 20
731.25
 30
0.0
 11
313.0
 21
731.25
 31
0.0
  0
LINE
  5
416
330
1E
100
AcDbEntity
  8
1
100
AcDbLine
 10
313.0
 20
713.75
 30
0.0
 11
313.0
 21
731.25
 31
0.0
  0
LINE
  5
417
330
1E
100
AcDbEntity
  8
1
100
AcDbLine
 10
310.0
 20
713.75
 30
0.0
 11
310.0
 21
731.25
 31
0.0
  0
ARC
  5
418
330
1E
100
AcDbEntity
  8
1
100
AcDbCircle
 10
311.5
 20
713.75
 30
0.0
 40
1.5
100
AcDbArc
 50
180.0
 51
0.0
  0
ARC
  5
419
330
1E
100
AcDbEntity
  8
1
100
AcDbCircle
 10
311.5
 20
731.25
 30
0.0
 40
1.5
100
AcDbArc
 50
0.0
 51
180.0
  0
LINE
  5
41A
330
1E
100
AcDbEntity
  8
1
100
AcDbLine
 10
310.0
 20
713.75
 30
0.0
 11
308.0
 21
713.75
 31
0.0
  0
LINE
  5
41B
330
1E
100
AcDbEntity
  8
1
100
AcDbLine
 10
310.0
 20
731.25
 30
0.0
 11
308.0
 21
731.25
 31
0.0
  0
LINE
  5
41C
330
1E
100
AcDbEntity
  8
1
100
AcDbLine
 10
308.0
 20
713.75
 30
0.0
 11
308.0
 21
731.25
 31
0.0
  0
LINE
  5
41D
330
1E
100
AcDbEntity
  8
1
100
AcDbLine
 10
305.0
 20
713.75
 30
0.0
 11
305.0
 21
731.25
 31
0.0
  0
ARC
  5
41E
330
1E
100
AcDbEntity
  8
1
100
AcDbCircle
 10
306.4999999999999
 20
713.75
 30
0.0
 40
1.5
100
AcDbArc
 50
180.0
 51
0.0
  0
ARC
  5
41F
330
1E
100
AcDbEntity
  8
1
100
AcDbCircle
 10
306.4999999999999
 20
731.25
 30
0.0
 40
1.5
100
AcDbArc
 50
0.0
 51
180.0
  0
LINE
  5
420
330
1E
100
AcDbEntity
  8
1
100
AcDbLine
 10
305.0
 20
713.75
 30
0.0
 11
303.0
 21
713.75
 31
0.0
  0
LINE
  5
421
330
1E
100
AcDbEntity
  8
1
100
AcDbLine
 10
305.0
 20
731.25
 30
0.0
 11
303.0
 21
731.25
 31
0.0
  0
LINE
  5
422
330
1E
100
AcDbEntity
  8
1
100
AcDbLine
 10
303.0
 20
713.75
 30
0.0
 11
303.0
 21
731.25
 31
0.0
  0
LINE
  5
423
330
1E
100
AcDbEntity
  8
1
100
AcDbLine
 10
300.0
 20
713.75
 30
0.0
 11
300.0
 21
731.25
 31
0.0
  0
ARC
  5
424
330
1E
100
AcDbEntity
  8
1
100
AcDbCircle
 10
301.5
 20
713.75
 30
0.0
 40
1.5
100
AcDbArc
 50
180.0
 51
0.0
  0
ARC
  5
425
330
1E
100
AcDbEntity
  8
1
100
AcDbCircle
 10
301.5
 20
731.25
 30
0.0
 40
1.5
100
AcDbArc
 50
0.0
 51
180.0
  0
LINE
  5
426
330
1E
100
AcDbEntity
  8
1
100
AcDbLine
 10
300.0
 20
713.75
 30
0.0
 11
298.0
 21
713.75
 31
0.0
  0
LINE
  5
427
330
1E
100
AcDbEntity
  8
1
100
AcDbLine
 10
300.0
 20
731.25
 30
0.0
 11
298.0
 21
731.25
 31
0.0
  0
LINE
  5
428
330
1E
100
AcDbEntity
  8
1
100
AcDbLine
 10
298.0
 20
713.75
 30
0.0
 11
298.0
 21
731.25
 31
0.0
  0
LINE
  5
429
330
1E
100
AcDbEntity
  8
1
100
AcDbLine
 10
293.0
 20
713.75
 30
0.0
 11
293.0
 21
731.25
 31
0.0
  0
ARC
  5
42A
330
1E
100
AcDbEntity
  8
1
100
AcDbCircle
 10
296.4999999999999
 20
713.75
 30
0.0
 40
1.5
100
AcDbArc
 50
180.0
 51
0.0
  0
ARC
  5
42B
330
1E
100
AcDbEntity
  8
1
100
AcDbCircle
 10
296.4999999999999
 20
731.25
 30
0.0
 40
1.5
100
AcDbArc
 50
0.0
 51
180.0
  0
LINE
  5
42C
330
1E
100
AcDbEntity
  8
1
100
AcDbLine
 10
295.0
 20
713.75
 30
0.0
 11
293.0
 21
713.75
 31
0.0
  0
LINE
  5
42D
330
1E
100
AcDbEntity
  8
1
100
AcDbLine
 10
295.0
 20
731.25
 30
0.0
 11
293.0
 21
731.25
 31
0.0
  0
LINE
  5
42E
330
1E
100
AcDbEntity
  8
1
  6
CENTER
 62
     1
100
AcDbLine
 10
370.0
 20
533.4999999999999
 30
0.0
 11
370.0
 21
672.5
 31
0.0
  0
LINE
  5
42F
330
1E
100
AcDbEntity
  8
1
  6
CENTER
 62
     1
100
AcDbLine
 10
186.0
 20
722.5
 30
0.0
 11
320.0
 21
722.5
 31
0.0
  0
ARC
  5
430
330
1E
100
AcDbEntity
  8
1
  6
CENTER
 62
     1
100
AcDbCircle
 10
320.0
 20
672.5
 30
0.0
 40
50.0
100
AcDbArc
 50
0.0
 51
90.0
  0
LINE
  5
431
330
1E
100
AcDbEntity
  8
1
100
AcDbLine
 10
278.0
 20
731.25
 30
0.0
 11
280.0
 21
731.25
 31
0.0
  0
LINE
  5
432
330
1E
100
AcDbEntity
  8
1
100
AcDbLine
 10
278.0
 20
713.75
 30
0.0
 11
280.0
 21
713.75
 31
0.0
  0
LINE
  5
433
330
1E
100
AcDbEntity
  8
1
100
AcDbLine
 10
280.0
 20
731.25
 30
0.0
 11
280.0
 21
713.75
 31
0.0
  0
LINE
  5
434
330
1E
100
AcDbEntity
  8
1
100
AcDbLine
 10
283.0
 20
731.25
 30
0.0
 11
283.0
 21
713.75
 31
0.0
  0
ARC
  5
435
330
1E
100
AcDbEntity
  8
1
100
AcDbCircle
 10
281.4999999999999
 20
731.25
 30
0.0
 40
1.5
100
AcDbArc
 50
0.0
 51
180.0
  0
ARC
  5
436
330
1E
100
AcDbEntity
  8
1
100
AcDbCircle
 10
281.4999999999999
 20
713.75
 30
0.0
 40
1.5
100
AcDbArc
 50
180.0
 51
0.0
  0
LINE
  5
437
330
1E
100
AcDbEntity
  8
1
100
AcDbLine
 10
273.0
 20
731.25
 30
0.0
 11
275.0
 21
731.25
 31
0.0
  0
LINE
  5
438
330
1E
100
AcDbEntity
  8
1
100
AcDbLine
 10
275.0
 20
731.25
 30
0.0
 11
275.0
 21
721.089957
 31
0.0
  0
LINE
  5
439
330
1E
100
AcDbEntity
  8
1
100
AcDbLine
 10
278.0
 20
731.25
 30
0.0
 11
278.0
 21
713.75
 31
0.0
  0
ARC
  5
43A
330
1E
100
AcDbEntity
  8
1
100
AcDbCircle
 10
276.5
 20
731.25
 30
0.0
 40
1.5
100
AcDbArc
 50
0.0
 51
180.0
  0
ARC
  5
43B
330
1E
100
AcDbEntity
  8
1
100
AcDbCircle
 10
276.5
 20
713.75
 30
0.0
 40
1.5
100
AcDbArc
 50
189.7197659999999
 51
0.0
  0
LINE
  5
43C
330
1E
100
AcDbEntity
  8
1
100
AcDbLine
 10
273.0
 20
731.25
 30
0.0
 11
273.0
 21
723.9100429999999
 31
0.0
  0
LINE
  5
43D
330
1E
100
AcDbEntity
  8
1
100
AcDbLine
 10
263.0
 20
713.75
 30
0.0
 11
265.0
 21
713.75
 31
0.0
  0
LINE
  5
43E
330
1E
100
AcDbEntity
  8
1
100
AcDbLine
 10
265.0
 20
721.089957
 30
0.0
 11
265.0
 21
713.75
 31
0.0
  0
ARC
  5
43F
330
1E
100
AcDbEntity
  8
1
100
AcDbCircle
 10
266.5
 20
713.75
 30
0.0
 40
1.5
100
AcDbArc
 50
180.0
 51
189.7191249999999
  0
LINE
  5
440
330
1E
100
AcDbEntity
  8
1
100
AcDbLine
 10
489.0
 20
553.5
 30
0.0
 11
535.516971
 21
538.81043
 31
0.0
  0
ARC
  5
441
330
1E
100
AcDbEntity
  8
1
100
AcDbCircle
 10
336.0
 20
543.5
 30
0.0
 40
10.0
100
AcDbArc
 50
90.0
 51
180.0
  0
ARC
  5
442
330
1E
100
AcDbEntity
  8
1
100
AcDbCircle
 10
531.0
 20
524.50669
 30
0.0
 40
15.0
100
AcDbArc
 50
0.0
 51
72.47443199999999
  0
ARC
  5
443
330
1E
100
AcDbEntity
  8
1
 62
     3
100
AcDbCircle
 10
341.0
 20
522.958937
 30
0.0
 40
15.0
100
AcDbArc
 50
100.203974
 51
154.1580669999999
  0
LINE
  5
444
330
1E
100
AcDbEntity
  8
1
100
AcDbLine
 10
561.0
 20
427.5
 30
0.0
 11
561.0
 21
453.5
 31
0.0
  0
LINE
  5
445
330
1E
100
AcDbEntity
  8
1
100
AcDbLine
 10
311.0
 20
427.5
 30
0.0
 11
311.0
 21
453.5
 31
0.0
  0
LINE
  5
446
330
1E
100
AcDbEntity
  8
1
100
AcDbLine
 10
546.0
 20
190.5
 30
0.0
 11
546.0
 21
423.5
 31
0.0
  0
LINE
  5
447
330
1E
100
AcDbEntity
  8
1
100
AcDbLine
 10
546.0
 20
457.5
 30
0.0
 11
546.0
 21
524.50669
 31
0.0
  0
LINE
  5
448
330
1E
100
AcDbEntity
  8
1
100
AcDbLine
 10
551.0
 20
453.5
 30
0.0
 11
551.0
 21
457.5
 31
0.0
  0
LINE
  5
449
330
1E
100
AcDbEntity
  8
1
100
AcDbLine
 10
321.0
 20
452.536312
 30
0.0
 11
321.0
 21
457.5
 31
0.0
  0
LINE
  5
44A
330
1E
100
AcDbEntity
  8
1
100
AcDbLine
 10
321.0
 20
423.5
 30
0.0
 11
321.0
 21
428.4636879999999
 31
0.0
  0
LINE
  5
44B
330
1E
100
AcDbEntity
  8
1
100
AcDbLine
 10
551.0
 20
423.5
 30
0.0
 11
551.0
 21
427.5
 31
0.0
  0
LINE
  5
44C
330
1E
100
AcDbEntity
  8
1
100
AcDbLine
 10
436.0
 20
444.2499999999999
 30
0.0
 11
459.487469
 21
444.2499999999999
 31
0.0
  0
LINE
  5
44D
330
1E
100
AcDbEntity
  8
1
100
AcDbLine
 10
436.0
 20
436.7499999999999
 30
0.0
 11
459.487469
 21
436.7499999999999
 31
0.0
  0
ARC
  5
44E
330
1E
100
AcDbEntity
  8
1
100
AcDbCircle
 10
457.0
 20
440.5
 30
0.0
 40
4.5
100
AcDbArc
 50
270.0
 51
90.0
  0
LINE
  5
44F
330
1E
100
AcDbEntity
  8
1
100
AcDbLine
 10
453.5
 20
427.5
 30
0.0
 11
453.5
 21
436.0
 31
0.0
  0
LINE
  5
450
330
1E
100
AcDbEntity
  8
1
100
AcDbLine
 10
453.5
 20
445.0
 30
0.0
 11
453.5
 21
453.5
 31
0.0
  0
LINE
  5
451
330
1E
100
AcDbEntity
  8
1
100
AcDbLine
 10
494.0
 20
444.2499999999999
 30
0.0
 11
499.5
 21
444.2499999999999
 31
0.0
  0
LINE
  5
452
330
1E
100
AcDbEntity
  8
1
100
AcDbLine
 10
494.0
 20
436.7499999999999
 30
0.0
 11
499.5
 21
436.7499999999999
 31
0.0
  0
LINE
  5
453
330
1E
100
AcDbEntity
  8
1
100
AcDbLine
 10
487.5
 20
434.0
 30
0.0
 11
487.5
 21
447.0
 31
0.0
  0
LINE
  5
454
330
1E
100
AcDbEntity
  8
1
100
AcDbLine
 10
481.0
 20
448.0
 30
0.0
 11
486.5
 21
448.0
 31
0.0
  0
LINE
  5
455
330
1E
100
AcDbEntity
  8
1
100
AcDbLine
 10
481.0
 20
433.0
 30
0.0
 11
486.5
 21
433.0
 31
0.0
  0
LINE
  5
456
330
1E
100
AcDbEntity
  8
1
100
AcDbLine
 10
481.0
 20
433.0
 30
0.0
 11
481.0
 21
448.0
 31
0.0
  0
LINE
  5
457
330
1E
100
AcDbEntity
  8
1
100
AcDbLine
 10
481.0
 20
446.75
 30
0.0
 11
470.0
 21
446.75
 31
0.0
  0
LINE
  5
458
330
1E
100
AcDbEntity
  8
1
100
AcDbLine
 10
470.0
 20
434.25
 30
0.0
 11
481.0
 21
434.25
 31
0.0
  0
LINE
  5
459
330
1E
100
AcDbEntity
  8
1
100
AcDbLine
 10
453.5
 20
445.0
 30
0.0
 11
462.5
 21
445.0
 31
0.0
  0
LINE
  5
45A
330
1E
100
AcDbEntity
  8
1
100
AcDbLine
 10
453.5
 20
436.0
 30
0.0
 11
462.5
 21
436.0
 31
0.0
  0
LINE
  5
45B
330
1E
100
AcDbEntity
  8
1
100
AcDbLine
 10
466.2996709999999
 20
447.75
 30
0.0
 11
481.0
 21
447.75
 31
0.0
  0
LINE
  5
45C
330
1E
100
AcDbEntity
  8
1
100
AcDbLine
 10
466.2996709999999
 20
433.25
 30
0.0
 11
481.0
 21
433.25
 31
0.0
  0
ARC
  5
45D
330
1E
100
AcDbEntity
  8
1
100
AcDbCircle
 10
466.2996709999999
 20
443.75
 30
0.0
 40
4.0
100
AcDbArc
 50
90.0
 51
161.7900429999999
  0
ARC
  5
45E
330
1E
100
AcDbEntity
  8
1
100
AcDbCircle
 10
466.2996709999999
 20
437.25
 30
0.0
 40
4.0
100
AcDbArc
 50
198.209957
 51
270.0
  0
ARC
  5
45F
330
1E
100
AcDbEntity
  8
1
100
AcDbCircle
 10
470.0
 20
440.5
 30
0.0
 40
6.25
100
AcDbArc
 50
90.0
 51
270.0
  0
ARC
  5
460
330
1E
100
AcDbEntity
  8
1
100
AcDbCircle
 10
486.5
 20
447.0
 30
0.0
 40
1.0
100
AcDbArc
 50
0.0
 51
90.0
  0
ARC
  5
461
330
1E
100
AcDbEntity
  8
1
100
AcDbCircle
 10
486.5
 20
434.0
 30
0.0
 40
1.0
100
AcDbArc
 50
270.0
 51
0.0
  0
LINE
  5
462
330
1E
100
AcDbEntity
  8
1
100
AcDbLine
 10
494.0
 20
435.25
 30
0.0
 11
494.0
 21
445.75
 31
0.0
  0
LINE
  5
463
330
1E
100
AcDbEntity
  8
1
100
AcDbLine
 10
488.25
 20
447.5
 30
0.0
 11
493.25
 21
447.5
 31
0.0
  0
LINE
  5
464
330
1E
100
AcDbEntity
  8
1
100
AcDbLine
 10
488.25
 20
433.4999999999999
 30
0.0
 11
493.25
 21
433.4999999999999
 31
0.0
  0
LINE
  5
465
330
1E
100
AcDbEntity
  8
1
100
AcDbLine
 10
493.25
 20
444.0
 30
0.0
 11
488.25
 21
444.0
 31
0.0
  0
LINE
  5
466
330
1E
100
AcDbEntity
  8
1
100
AcDbLine
 10
493.25
 20
437.0
 30
0.0
 11
488.25
 21
437.0
 31
0.0
  0
ARC
  5
467
330
1E
100
AcDbEntity
  8
1
100
AcDbCircle
 10
485.4583329999999
 20
440.5
 30
0.0
 40
8.541667
100
AcDbArc
 50
335.8104859999999
 51
24.189514
  0
ARC
  5
468
330
1E
100
AcDbEntity
  8
1
100
AcDbCircle
 10
491.5833329999999
 20
445.75
 30
0.0
 40
2.416666999999999
100
AcDbArc
 50
313.602819
 51
46.397181
  0
ARC
  5
469
330
1E
100
AcDbEntity
  8
1
100
AcDbCircle
 10
491.5833329999999
 20
435.25
 30
0.0
 40
2.416666999999999
100
AcDbArc
 50
313.602819
 51
46.397181
  0
ARC
  5
46A
330
1E
100
AcDbEntity
  8
1
100
AcDbCircle
 10
489.916667
 20
445.75
 30
0.0
 40
2.416666999999999
100
AcDbArc
 50
133.6028189999999
 51
226.397181
  0
ARC
  5
46B
330
1E
100
AcDbEntity
  8
1
100
AcDbCircle
 10
496.0416669999999
 20
440.5
 30
0.0
 40
8.541667
100
AcDbArc
 50
155.810486
 51
204.189514
  0
ARC
  5
46C
330
1E
100
AcDbEntity
  8
1
100
AcDbCircle
 10
489.916667
 20
435.25
 30
0.0
 40
2.416666999999999
100
AcDbArc
 50
133.6028189999999
 51
226.397181
  0
LINE
  5
46D
330
1E
100
AcDbEntity
  8
1
100
AcDbLine
 10
499.5
 20
436.7499999999999
 30
0.0
 11
499.5
 21
444.2499999999999
 31
0.0
  0
LINE
  5
46E
330
1E
100
AcDbEntity
  8
1
100
AcDbLine
 10
336.0
 20
180.4999999999999
 30
0.0
 11
536.0
 21
180.4999999999999
 31
0.0
  0
LINE
  5
475
330
1E
100
AcDbEntity
  8
1
100
AcDbLine
 10
315.0
 20
160.4999999999999
 30
0.0
 11
376.0
 21
160.4999999999999
 31
0.0
  0
LINE
  5
476
330
1E
100
AcDbEntity
  8
1
100
AcDbLine
 10
375.4999999999999
 20
171.0
 30
0.0
 11
376.0
 21
160.4999999999999
 31
0.0
  0
LINE
  5
477
330
1E
100
AcDbEntity
  8
1
100
AcDbLine
 10
363.5
 20
170.0
 30
0.0
 11
375.4999999999999
 21
171.0
 31
0.0
  0
LINE
  5
478
330
1E
100
AcDbEntity
  8
1
100
AcDbLine
 10
351.0
 20
173.5
 30
0.0
 11
363.0
 21
174.5
 31
0.0
  0
LINE
  5
479
330
1E
100
AcDbEntity
  8
1
100
AcDbLine
 10
338.5
 20
177.0
 30
0.0
 11
350.4999999999999
 21
178.0
 31
0.0
  0
LINE
  5
47A
330
1E
100
AcDbEntity
  8
1
100
AcDbLine
 10
326.0
 20
180.4999999999999
 30
0.0
 11
338.0
 21
181.4999999999999
 31
0.0
  0
LINE
  5
47B
330
1E
100
AcDbEntity
  8
1
100
AcDbLine
 10
363.0
 20
174.5
 30
0.0
 11
363.5
 21
170.0
 31
0.0
  0
LINE
  5
47C
330
1E
100
AcDbEntity
  8
1
100
AcDbLine
 10
351.0
 20
173.5
 30
0.0
 11
350.4999999999999
 21
178.0
 31
0.0
  0
LINE
  5
47D
330
1E
100
AcDbEntity
  8
1
100
AcDbLine
 10
338.5
 20
177.0
 30
0.0
 11
338.0
 21
181.4999999999999
 31
0.0
  0
LINE
  5
47E
330
1E
100
AcDbEntity
  8
1
100
AcDbLine
 10
326.0
 20
180.4999999999999
 30
0.0
 11
325.675804
 21
185.687135
 31
0.0
  0
ARC
  5
47F
330
1E
100
AcDbEntity
  8
1
100
AcDbCircle
 10
322.681646
 20
185.5
 30
0.0
 40
3.0
100
AcDbArc
 50
3.576333999999999
 51
90.0
  0
LINE
  5
480
330
1E
100
AcDbEntity
  8
1
100
AcDbLine
 10
322.681646
 20
188.4999999999999
 30
0.0
 11
320.681646
 21
188.4999999999999
 31
0.0
  0
ARC
  5
481
330
1E
100
AcDbEntity
  8
1
100
AcDbCircle
 10
320.681646
 20
185.5
 30
0.0
 40
3.0
100
AcDbArc
 50
90.0
 51
167.755059
  0
ARC
  5
482
330
1E
100
AcDbEntity
  8
1
100
AcDbCircle
 10
435.873714
 20
160.4999999999999
 30
0.0
 40
120.8737139999999
100
AcDbArc
 50
167.755059
 51
180.0
  0
LINE
  5
483
330
1E
100
AcDbEntity
  8
1
100
AcDbLine
 10
557.0
 20
160.4999999999999
 30
0.0
 11
496.0
 21
160.4999999999999
 31
0.0
  0
LINE
  5
484
330
1E
100
AcDbEntity
  8
1
100
AcDbLine
 10
496.4999999999999
 20
171.0
 30
0.0
 11
496.0
 21
160.4999999999999
 31
0.0
  0
LINE
  5
485
330
1E
100
AcDbEntity
  8
1
100
AcDbLine
 10
508.4999999999999
 20
170.0
 30
0.0
 11
496.4999999999999
 21
171.0
 31
0.0
  0
LINE
  5
486
330
1E
100
AcDbEntity
  8
1
100
AcDbLine
 10
521.0
 20
173.5
 30
0.0
 11
509.0
 21
174.5
 31
0.0
  0
LINE
  5
487
330
1E
100
AcDbEntity
  8
1
100
AcDbLine
 10
533.4999999999999
 20
177.0
 30
0.0
 11
521.4999999999999
 21
178.0
 31
0.0
  0
LINE
  5
488
330
1E
100
AcDbEntity
  8
1
100
AcDbLine
 10
546.0
 20
180.4999999999999
 30
0.0
 11
534.0
 21
181.4999999999999
 31
0.0
  0
LINE
  5
489
330
1E
100
AcDbEntity
  8
1
100
AcDbLine
 10
509.0
 20
174.5
 30
0.0
 11
508.4999999999999
 21
170.0
 31
0.0
  0
LINE
  5
48A
330
1E
100
AcDbEntity
  8
1
100
AcDbLine
 10
521.0
 20
173.5
 30
0.0
 11
521.4999999999999
 21
178.0
 31
0.0
  0
LINE
  5
48B
330
1E
100
AcDbEntity
  8
1
100
AcDbLine
 10
533.4999999999999
 20
177.0
 30
0.0
 11
534.0
 21
181.4999999999999
 31
0.0
  0
LINE
  5
48C
330
1E
100
AcDbEntity
  8
1
100
AcDbLine
 10
546.0
 20
180.4999999999999
 30
0.0
 11
546.324196
 21
185.687135
 31
0.0
  0
ARC
  5
48D
330
1E
100
AcDbEntity
  8
1
100
AcDbCircle
 10
549.318354
 20
185.5
 30
0.0
 40
3.0
100
AcDbArc
 50
90.0
 51
176.4236659999999
  0
LINE
  5
48E
330
1E
100
AcDbEntity
  8
1
100
AcDbLine
 10
549.318354
 20
188.4999999999999
 30
0.0
 11
551.3183539999999
 21
188.4999999999999
 31
0.0
  0
ARC
  5
48F
330
1E
100
AcDbEntity
  8
1
100
AcDbCircle
 10
551.3183539999999
 20
185.5
 30
0.0
 40
3.0
100
AcDbArc
 50
12.244941
 51
90.0
  0
ARC
  5
490
330
1E
100
AcDbEntity
  8
1
100
AcDbCircle
 10
436.126286
 20
160.4999999999999
 30
0.0
 40
120.8737139999999
100
AcDbArc
 50
0.0
 51
12.244941
  0
LINE
  5
491
330
1E
100
AcDbEntity
  8
1
 62
     3
100
AcDbLine
 10
476.0
 20
428.5
 30
0.0
 11
476.0
 21
433.25
 31
0.0
  0
LINE
  5
492
330
1E
100
AcDbEntity
  8
1
 62
     3
100
AcDbLine
 10
476.0
 20
447.75
 30
0.0
 11
476.0
 21
452.5
 31
0.0
  0
ARC
  5
499
330
1E
100
AcDbEntity
  8
1
 62
     3
100
AcDbCircle
 10
436.0
 20
192.5
 30
0.0
 40
40.0
100
AcDbArc
 50
90.0
 51
137.5291939999999
  0
ARC
  5
49A
330
1E
100
AcDbEntity
  8
1
100
AcDbCircle
 10
436.0
 20
192.5
 30
0.0
 40
38.5
100
AcDbArc
 50
90.0
 51
137.5291939999999
  0
ARC
  5
49B
330
1E
100
AcDbEntity
  8
1
100
AcDbCircle
 10
317.980564
 20
300.534312
 30
0.0
 40
121.5
100
AcDbArc
 50
279.3003179999999
 51
317.529194
  0
ARC
  5
49C
330
1E
100
AcDbEntity
  8
1
 62
     3
100
AcDbCircle
 10
317.980564
 20
300.534312
 30
0.0
 40
120.0
100
AcDbArc
 50
279.3003179999999
 51
317.529194
  0
ARC
  5
49D
330
1E
100
AcDbEntity
  8
1
100
AcDbCircle
 10
536.0
 20
190.5
 30
0.0
 40
10.0
100
AcDbArc
 50
260.6996819999999
 51
0.0
  0
ARC
  5
49E
330
1E
100
AcDbEntity
  8
1
 62
     3
100
AcDbCircle
 10
336.0
 20
190.5
 30
0.0
 40
8.5
100
AcDbArc
 50
180.0
 51
279.3003179999999
  0
ARC
  5
49F
330
1E
100
AcDbEntity
  8
1
100
AcDbCircle
 10
336.0
 20
190.5
 30
0.0
 40
10.0
100
AcDbArc
 50
180.0
 51
270.0
  0
LINE
  5
4A0
330
1E
100
AcDbEntity
  8
1
 62
     3
100
AcDbLine
 10
336.0
 20
552.0
 30
0.0
 11
436.0
 21
552.0
 31
0.0
  0
ARC
  5
4A1
330
1E
100
AcDbEntity
  8
1
 62
     3
100
AcDbCircle
 10
336.0
 20
543.5
 30
0.0
 40
8.5
100
AcDbArc
 50
90.0
 51
180.0
  0
LINE
  5
4A2
330
1E
100
AcDbEntity
  8
1
100
AcDbLine
 10
321.0
 20
457.5
 30
0.0
 11
324.0
 21
457.5
 31
0.0
  0
LINE
  5
4A3
330
1E
100
AcDbEntity
  8
1
100
AcDbLine
 10
436.0
 20
457.5
 30
0.0
 11
551.0
 21
457.5
 31
0.0
  0
LINE
  5
4A4
330
1E
100
AcDbEntity
  8
1
100
AcDbLine
 10
436.0
 20
453.5
 30
0.0
 11
561.0
 21
453.5
 31
0.0
  0
LINE
  5
4A5
330
1E
100
AcDbEntity
  8
1
100
AcDbLine
 10
436.0
 20
427.5
 30
0.0
 11
561.0
 21
427.5
 31
0.0
  0
LINE
  5
4A6
330
1E
100
AcDbEntity
  8
1
100
AcDbLine
 10
321.0
 20
423.5
 30
0.0
 11
324.0
 21
423.5
 31
0.0
  0
LINE
  5
4A7
330
1E
100
AcDbEntity
  8
1
100
AcDbLine
 10
436.0
 20
423.5
 30
0.0
 11
551.0
 21
423.5
 31
0.0
  0
LINE
  5
4A8
330
1E
100
AcDbEntity
  8
1
100
AcDbLine
 10
312.5
 20
427.5
 30
0.0
 11
312.5
 21
453.5
 31
0.0
  0
LINE
  5
4A9
330
1E
100
AcDbEntity
  8
1
100
AcDbLine
 10
324.0
 20
452.536312
 30
0.0
 11
324.0
 21
457.5
 31
0.0
  0
LINE
  5
4AA
330
1E
100
AcDbEntity
  8
1
100
AcDbLine
 10
324.0
 20
423.5
 30
0.0
 11
324.0
 21
428.4636879999999
 31
0.0
  0
LINE
  5
4AB
330
1E
100
AcDbEntity
  8
1
100
AcDbLine
 10
315.5
 20
438.09078
 30
0.0
 11
315.5
 21
442.90922
 31
0.0
  0
LINE
  5
4AC
330
1E
100
AcDbEntity
  8
1
100
AcDbLine
 10
320.1533659999999
 20
450.9023759999999
 30
0.0
 11
314.616584
 21
446.994059
 31
0.0
  0
LINE
  5
4AD
330
1E
100
AcDbEntity
  8
1
100
AcDbLine
 10
314.616584
 20
434.005941
 30
0.0
 11
320.1533659999999
 21
430.0976239999999
 31
0.0
  0
LINE
  5
4AE
330
1E
100
AcDbEntity
  8
1
100
AcDbLine
 10
321.883416
 20
448.4514729999999
 30
0.0
 11
316.3466339999999
 21
444.543156
 31
0.0
  0
LINE
  5
4AF
330
1E
100
AcDbEntity
  8
1
100
AcDbLine
 10
316.3466339999999
 20
436.456844
 30
0.0
 11
321.883416
 21
432.5485269999999
 31
0.0
  0
ARC
  5
4B0
330
1E
100
AcDbEntity
  8
1
100
AcDbCircle
 10
319.0
 20
452.536312
 30
0.0
 40
2.0
100
AcDbArc
 50
305.217593
 51
0.0
  0
ARC
  5
4B1
330
1E
100
AcDbEntity
  8
1
100
AcDbCircle
 10
319.0
 20
428.4636879999999
 30
0.0
 40
2.0
100
AcDbArc
 50
0.0
 51
54.78240699999998
  0
ARC
  5
4B2
330
1E
100
AcDbEntity
  8
1
100
AcDbCircle
 10
317.5
 20
438.09078
 30
0.0
 40
2.0
100
AcDbArc
 50
180.0
 51
234.7824069999999
  0
ARC
  5
4B3
330
1E
100
AcDbEntity
  8
1
100
AcDbCircle
 10
317.5
 20
442.90922
 30
0.0
 40
2.0
100
AcDbArc
 50
125.2175929999999
 51
180.0
  0
ARC
  5
4B4
330
1E
100
AcDbEntity
  8
1
100
AcDbCircle
 10
319.0
 20
452.536312
 30
0.0
 40
5.0
100
AcDbArc
 50
305.217593
 51
0.0
  0
ARC
  5
4B5
330
1E
100
AcDbEntity
  8
1
100
AcDbCircle
 10
319.0
 20
428.4636879999999
 30
0.0
 40
5.0
100
AcDbArc
 50
0.0
 51
54.78240699999998
  0
ARC
  5
4B6
330
1E
100
AcDbEntity
  8
1
100
AcDbCircle
 10
317.5
 20
438.09078
 30
0.0
 40
5.0
100
AcDbArc
 50
180.0
 51
234.7824069999999
  0
ARC
  5
4B7
330
1E
100
AcDbEntity
  8
1
100
AcDbCircle
 10
317.5
 20
442.90922
 30
0.0
 40
5.0
100
AcDbArc
 50
125.2175929999999
 51
180.0
  0
LINE
  5
4B8
330
1E
100
AcDbEntity
  8
1
100
AcDbLine
 10
311.0
 20
453.5
 30
0.0
 11
321.0
 21
453.5
 31
0.0
  0
LINE
  5
4B9
330
1E
100
AcDbEntity
  8
1
100
AcDbLine
 10
324.0
 20
453.5
 30
0.0
 11
326.0
 21
453.5
 31
0.0
  0
LINE
  5
4BA
330
1E
100
AcDbEntity
  8
1
100
AcDbLine
 10
311.0
 20
427.5
 30
0.0
 11
321.0
 21
427.5
 31
0.0
  0
LINE
  5
4BB
330
1E
100
AcDbEntity
  8
1
100
AcDbLine
 10
324.0
 20
427.5
 30
0.0
 11
326.0
 21
427.5
 31
0.0
  0
LINE
  5
4BC
330
1E
100
AcDbEntity
  8
1
100
AcDbLine
 10
326.0
 20
190.5
 30
0.0
 11
326.0
 21
429.815342
 31
0.0
  0
LINE
  5
4BD
330
1E
100
AcDbEntity
  8
1
100
AcDbLine
 10
326.0
 20
453.336058
 30
0.0
 11
326.0
 21
543.5
 31
0.0
  0
LINE
  5
4BE
330
1E
100
AcDbEntity
  8
1
 62
     3
100
AcDbLine
 10
327.4999999999999
 20
190.5
 30
0.0
 11
327.4999999999999
 21
429.815342
 31
0.0
  0
LINE
  5
4BF
330
1E
100
AcDbEntity
  8
1
 62
     3
100
AcDbLine
 10
327.4999999999999
 20
453.336058
 30
0.0
 11
327.4999999999999
 21
543.5
 31
0.0
  0
LINE
  5
4C0
330
1E
100
AcDbEntity
  8
1
100
AcDbLine
 10
316.0
 20
437.5
 30
0.0
 11
321.6905249999999
 21
437.5
 31
0.0
  0
LINE
  5
4C1
330
1E
100
AcDbEntity
  8
1
100
AcDbLine
 10
316.0
 20
437.5
 30
0.0
 11
316.0
 21
442.90922
 31
0.0
  0
LINE
  5
4C2
330
1E
100
AcDbEntity
  8
1
100
AcDbLine
 10
323.883416
 20
449.251218
 30
0.0
 11
316.634975
 21
444.134672
 31
0.0
  0
ARC
  5
4C3
330
1E
100
AcDbEntity
  8
1
100
AcDbCircle
 10
317.5
 20
442.90922
 30
0.0
 40
1.5
100
AcDbArc
 50
125.2175929999999
 51
180.0
  0
ARC
  5
4C4
330
1E
100
AcDbEntity
  8
1
100
AcDbCircle
 10
321.0
 20
453.336058
 30
0.0
 40
5.0
100
AcDbArc
 50
305.217593
 51
0.0
  0
LINE
  5
4C5
330
1E
100
AcDbEntity
  8
1
100
AcDbLine
 10
324.748441
 20
448.025766
 30
0.0
 11
317.5
 21
442.90922
 31
0.0
  0
LINE
  5
4C6
330
1E
100
AcDbEntity
  8
1
100
AcDbLine
 10
317.5
 20
437.5
 30
0.0
 11
317.5
 21
442.90922
 31
0.0
  0
ARC
  5
4C7
330
1E
100
AcDbEntity
  8
1
100
AcDbCircle
 10
321.0
 20
453.336058
 30
0.0
 40
6.5
100
AcDbArc
 50
305.217593
 51
0.0
  0
LINE
  5
4C8
330
1E
100
AcDbEntity
  8
1
100
AcDbLine
 10
327.4999999999999
 20
442.480741
 30
0.0
 11
327.4999999999999
 21
453.0
 31
0.0
  0
LINE
  5
4C9
330
1E
100
AcDbEntity
  8
1
100
AcDbLine
 10
327.4999999999999
 20
453.0
 30
0.0
 11
329.0
 21
453.0
 31
0.0
  0
LINE
  5
4CA
330
1E
100
AcDbEntity
  8
1
100
AcDbLine
 10
329.0
 20
442.480741
 30
0.0
 11
329.0
 21
453.0
 31
0.0
  0
ARC
  5
4CB
330
1E
100
AcDbEntity
  8
1
100
AcDbCircle
 10
327.4999999999999
 20
436.0
 30
0.0
 40
6.0
100
AcDbArc
 50
94.41172599999999
 51
252.0797869999999
  0
ARC
  5
4CC
330
1E
100
AcDbEntity
  8
1
100
AcDbCircle
 10
327.4999999999999
 20
436.0
 30
0.0
 40
4.5
100
AcDbArc
 50
94.41172599999999
 51
252.0797869999999
  0
ARC
  5
4CD
330
1E
100
AcDbEntity
  8
1
100
AcDbCircle
 10
327.0
 20
442.480741
 30
0.0
 40
0.5
100
AcDbArc
 50
274.4117259999999
 51
0.0
  0
ARC
  5
4CE
330
1E
100
AcDbEntity
  8
1
100
AcDbCircle
 10
325.4999999999999
 20
429.815342
 30
0.0
 40
0.5
100
AcDbArc
 50
0.0
 51
72.07978699999999
  0
ARC
  5
4CF
330
1E
100
AcDbEntity
  8
1
 62
     3
100
AcDbCircle
 10
325.4999999999999
 20
429.815342
 30
0.0
 40
2.0
100
AcDbArc
 50
0.0
 51
72.07978699999999
  0
ARC
  5
4D0
330
1E
100
AcDbEntity
  8
1
100
AcDbCircle
 10
327.0
 20
442.480741
 30
0.0
 40
2.0
100
AcDbArc
 50
274.4117259999999
 51
0.0
  0
LINE
  5
4D1
330
1E
100
AcDbEntity
  8
1
100
AcDbLine
 10
322.5
 20
441.92099
 30
0.0
 11
322.5
 21
446.42099
 31
0.0
  0
LINE
  5
4D2
330
1E
100
AcDbEntity
  8
1
100
AcDbLine
 10
322.5
 20
441.92099
 30
0.0
 11
326.5294959999999
 21
441.92099
 31
0.0
  0
LINE
  5
4D3
330
1E
100
AcDbEntity
  8
1
100
AcDbLine
 10
322.5
 20
446.42099
 30
0.0
 11
327.4999999999999
 21
446.42099
 31
0.0
  0
LINE
  5
4D4
330
1E
100
AcDbEntity
  8
1
  6
DOT
 62
     3
100
AcDbLine
 10
324.75
 20
446.42099
 30
0.0
 11
322.5
 21
444.17099
 31
0.0
  0
LINE
  5
4D5
330
1E
100
AcDbEntity
  8
1
  6
DOT
 62
     3
100
AcDbLine
 10
326.164214
 20
446.42099
 30
0.0
 11
322.5
 21
442.756776
 31
0.0
  0
LINE
  5
4D6
330
1E
100
AcDbEntity
  8
1
  6
DOT
 62
     3
100
AcDbLine
 10
323.078427
 20
441.92099
 30
0.0
 11
327.4999999999999
 21
446.3425629999999
 31
0.0
  0
LINE
  5
4D7
330
1E
100
AcDbEntity
  8
1
  6
DOT
 62
     3
100
AcDbLine
 10
324.492641
 20
441.92099
 30
0.0
 11
327.4999999999999
 21
444.928349
 31
0.0
  0
LINE
  5
4D8
330
1E
100
AcDbEntity
  8
1
  6
DOT
 62
     3
100
AcDbLine
 10
325.906854
 20
441.92099
 30
0.0
 11
327.4999999999999
 21
443.514136
 31
0.0
  0
LINE
  5
4D9
330
1E
100
AcDbEntity
  8
1
  6
DOT
 62
     3
100
AcDbLine
 10
323.3357859999999
 20
446.42099
 30
0.0
 11
322.5
 21
445.5852039999999
 31
0.0
  0
LINE
  5
4DA
330
1E
100
AcDbEntity
  8
1
  6
DOT
 62
     3
100
AcDbLine
 10
324.75
 20
441.92099
 30
0.0
 11
322.5
 21
444.17099
 31
0.0
  0
LINE
  5
4DB
330
1E
100
AcDbEntity
  8
1
  6
DOT
 62
     3
100
AcDbLine
 10
326.164214
 20
441.92099
 30
0.0
 11
322.5
 21
445.5852039999999
 31
0.0
  0
LINE
  5
4DC
330
1E
100
AcDbEntity
  8
1
  6
DOT
 62
     3
100
AcDbLine
 10
327.268608
 20
442.2308089999999
 30
0.0
 11
323.078427
 21
446.42099
 31
0.0
  0
LINE
  5
4DD
330
1E
100
AcDbEntity
  8
1
  6
DOT
 62
     3
100
AcDbLine
 10
327.4999999999999
 20
443.413631
 30
0.0
 11
324.492641
 21
446.42099
 31
0.0
  0
LINE
  5
4DE
330
1E
100
AcDbEntity
  8
1
  6
DOT
 62
     3
100
AcDbLine
 10
327.4999999999999
 20
444.827844
 30
0.0
 11
325.906854
 21
446.42099
 31
0.0
  0
LINE
  5
4DF
330
1E
100
AcDbEntity
  8
1
  6
DOT
 62
     3
100
AcDbLine
 10
327.4999999999999
 20
446.2420579999999
 30
0.0
 11
327.321068
 21
446.42099
 31
0.0
  0
LINE
  5
4E0
330
1E
100
AcDbEntity
  8
1
  6
DOT
 62
     3
100
AcDbLine
 10
323.3357859999999
 20
441.92099
 30
0.0
 11
322.5
 21
442.756776
 31
0.0
  0
LINE
  5
4E1
330
1E
100
AcDbEntity
  8
1
100
AcDbLine
 10
412.0
 20
541.5
 30
0.0
 11
436.0
 21
541.5
 31
0.0
  0
LINE
  5
4E2
330
1E
100
AcDbEntity
  8
1
100
AcDbLine
 10
412.0
 20
541.5
 30
0.0
 11
412.0
 21
552.0
 31
0.0
  0
LINE
  5
4E3
330
1E
100
AcDbEntity
  8
1
  6
DASHED
100
AcDbLine
 10
417.0
 20
518.5
 30
0.0
 11
436.0
 21
518.5
 31
0.0
  0
LINE
  5
4E4
330
1E
100
AcDbEntity
  8
1
  6
DASHED
100
AcDbLine
 10
417.0
 20
521.4999999999999
 30
0.0
 11
436.0
 21
521.4999999999999
 31
0.0
  0
LINE
  5
4E5
330
1E
100
AcDbEntity
  8
1
  6
DASHED
100
AcDbLine
 10
417.0
 20
524.5
 30
0.0
 11
436.0
 21
524.5
 31
0.0
  0
LINE
  5
4E6
330
1E
100
AcDbEntity
  8
1
  6
DASHED
100
AcDbLine
 10
417.0
 20
527.5
 30
0.0
 11
436.0
 21
527.5
 31
0.0
  0
LINE
  5
4E7
330
1E
100
AcDbEntity
  8
1
  6
DASHED
100
AcDbLine
 10
417.0
 20
530.4999999999999
 30
0.0
 11
436.0
 21
530.4999999999999
 31
0.0
  0
LINE
  5
4E8
330
1E
100
AcDbEntity
  8
1
  6
DOT
 62
     3
100
AcDbLine
 10
423.5
 20
527.5
 30
0.0
 11
426.4999999999999
 21
530.4999999999999
 31
0.0
  0
LINE
  5
4E9
330
1E
100
AcDbEntity
  8
1
  6
DOT
 62
     3
100
AcDbLine
 10
424.914214
 20
527.5
 30
0.0
 11
427.914214
 21
530.4999999999999
 31
0.0
  0
LINE
  5
4EA
330
1E
100
AcDbEntity
  8
1
  6
DOT
 62
     3
100
AcDbLine
 10
426.3284269999999
 20
527.5
 30
0.0
 11
429.328427
 21
530.4999999999999
 31
0.0
  0
LINE
  5
4EB
330
1E
100
AcDbEntity
  8
1
  6
DOT
 62
     3
100
AcDbLine
 10
427.742641
 20
527.5
 30
0.0
 11
430.7426409999999
 21
530.4999999999999
 31
0.0
  0
LINE
  5
4EC
330
1E
100
AcDbEntity
  8
1
  6
DOT
 62
     3
100
AcDbLine
 10
429.156854
 20
527.5
 30
0.0
 11
432.156854
 21
530.4999999999999
 31
0.0
  0
LINE
  5
4ED
330
1E
100
AcDbEntity
  8
1
  6
DOT
 62
     3
100
AcDbLine
 10
430.571068
 20
527.5
 30
0.0
 11
433.571068
 21
530.4999999999999
 31
0.0
  0
LINE
  5
4EE
330
1E
100
AcDbEntity
  8
1
  6
DOT
 62
     3
100
AcDbLine
 10
431.9852809999999
 20
527.5
 30
0.0
 11
434.9852809999999
 21
530.4999999999999
 31
0.0
  0
LINE
  5
4EF
330
1E
100
AcDbEntity
  8
1
  6
DOT
 62
     3
100
AcDbLine
 10
433.399495
 20
527.5
 30
0.0
 11
436.0
 21
530.1005049999999
 31
0.0
  0
LINE
  5
4F0
330
1E
100
AcDbEntity
  8
1
  6
DOT
 62
     3
100
AcDbLine
 10
434.8137079999999
 20
527.5
 30
0.0
 11
436.0
 21
528.6862919999999
 31
0.0
  0
LINE
  5
4F1
330
1E
100
AcDbEntity
  8
1
  6
DOT
 62
     3
100
AcDbLine
 10
422.0857859999999
 20
527.5
 30
0.0
 11
425.0857859999999
 21
530.4999999999999
 31
0.0
  0
LINE
  5
4F2
330
1E
100
AcDbEntity
  8
1
  6
DOT
 62
     3
100
AcDbLine
 10
420.6715729999999
 20
527.5
 30
0.0
 11
423.671573
 21
530.4999999999999
 31
0.0
  0
LINE
  5
4F3
330
1E
100
AcDbEntity
  8
1
  6
DOT
 62
     3
100
AcDbLine
 10
419.257359
 20
527.5
 30
0.0
 11
422.257359
 21
530.4999999999999
 31
0.0
  0
LINE
  5
4F4
330
1E
100
AcDbEntity
  8
1
  6
DOT
 62
     3
100
AcDbLine
 10
417.8431459999999
 20
527.5
 30
0.0
 11
420.8431459999999
 21
530.4999999999999
 31
0.0
  0
LINE
  5
4F5
330
1E
100
AcDbEntity
  8
1
  6
DOT
 62
     3
100
AcDbLine
 10
417.0
 20
528.0710679999999
 30
0.0
 11
419.428932
 21
530.4999999999999
 31
0.0
  0
LINE
  5
4F6
330
1E
100
AcDbEntity
  8
1
  6
DOT
 62
     3
100
AcDbLine
 10
417.0
 20
529.485281
 30
0.0
 11
418.014719
 21
530.4999999999999
 31
0.0
  0
LINE
  5
4F7
330
1E
100
AcDbEntity
  8
1
  6
DOT
 62
     3
100
AcDbLine
 10
429.4999999999999
 20
527.5
 30
0.0
 11
426.4999999999999
 21
530.4999999999999
 31
0.0
  0
LINE
  5
4F8
330
1E
100
AcDbEntity
  8
1
  6
DOT
 62
     3
100
AcDbLine
 10
430.914214
 20
527.5
 30
0.0
 11
427.914214
 21
530.4999999999999
 31
0.0
  0
LINE
  5
4F9
330
1E
100
AcDbEntity
  8
1
  6
DOT
 62
     3
100
AcDbLine
 10
432.328427
 20
527.5
 30
0.0
 11
429.328427
 21
530.4999999999999
 31
0.0
  0
LINE
  5
4FA
330
1E
100
AcDbEntity
  8
1
  6
DOT
 62
     3
100
AcDbLine
 10
433.7426409999999
 20
527.5
 30
0.0
 11
430.7426409999999
 21
530.4999999999999
 31
0.0
  0
LINE
  5
4FB
330
1E
100
AcDbEntity
  8
1
  6
DOT
 62
     3
100
AcDbLine
 10
435.156854
 20
527.5
 30
0.0
 11
432.156854
 21
530.4999999999999
 31
0.0
  0
LINE
  5
4FC
330
1E
100
AcDbEntity
  8
1
  6
DOT
 62
     3
100
AcDbLine
 10
436.0
 20
528.0710679999999
 30
0.0
 11
433.571068
 21
530.4999999999999
 31
0.0
  0
LINE
  5
4FD
330
1E
100
AcDbEntity
  8
1
  6
DOT
 62
     3
100
AcDbLine
 10
436.0
 20
529.485281
 30
0.0
 11
434.9852809999999
 21
530.4999999999999
 31
0.0
  0
LINE
  5
4FE
330
1E
100
AcDbEntity
  8
1
  6
DOT
 62
     3
100
AcDbLine
 10
428.085786
 20
527.5
 30
0.0
 11
425.0857859999999
 21
530.4999999999999
 31
0.0
  0
LINE
  5
4FF
330
1E
100
AcDbEntity
  8
1
  6
DOT
 62
     3
100
AcDbLine
 10
426.671573
 20
527.5
 30
0.0
 11
423.671573
 21
530.4999999999999
 31
0.0
  0
LINE
  5
500
330
1E
100
AcDbEntity
  8
1
  6
DOT
 62
     3
100
AcDbLine
 10
425.2573589999999
 20
527.5
 30
0.0
 11
422.257359
 21
530.4999999999999
 31
0.0
  0
LINE
  5
501
330
1E
100
AcDbEntity
  8
1
  6
DOT
 62
     3
100
AcDbLine
 10
423.843146
 20
527.5
 30
0.0
 11
420.8431459999999
 21
530.4999999999999
 31
0.0
  0
LINE
  5
502
330
1E
100
AcDbEntity
  8
1
  6
DOT
 62
     3
100
AcDbLine
 10
422.4289319999999
 20
527.5
 30
0.0
 11
419.428932
 21
530.4999999999999
 31
0.0
  0
LINE
  5
503
330
1E
100
AcDbEntity
  8
1
  6
DOT
 62
     3
100
AcDbLine
 10
421.0147189999999
 20
527.5
 30
0.0
 11
418.014719
 21
530.4999999999999
 31
0.0
  0
LINE
  5
504
330
1E
100
AcDbEntity
  8
1
  6
DOT
 62
     3
100
AcDbLine
 10
417.0
 20
530.1005049999999
 30
0.0
 11
419.600505
 21
527.5
 31
0.0
  0
LINE
  5
505
330
1E
100
AcDbEntity
  8
1
  6
DOT
 62
     3
100
AcDbLine
 10
417.0
 20
528.6862919999999
 30
0.0
 11
418.1862919999999
 21
527.5
 31
0.0
  0
LINE
  5
506
330
1E
100
AcDbEntity
  8
1
  6
DOT
 62
     3
100
AcDbLine
 10
423.5
 20
521.4999999999999
 30
0.0
 11
426.4999999999999
 21
524.5
 31
0.0
  0
LINE
  5
507
330
1E
100
AcDbEntity
  8
1
  6
DOT
 62
     3
100
AcDbLine
 10
424.914214
 20
521.4999999999999
 30
0.0
 11
427.914214
 21
524.5
 31
0.0
  0
LINE
  5
508
330
1E
100
AcDbEntity
  8
1
  6
DOT
 62
     3
100
AcDbLine
 10
426.3284269999999
 20
521.4999999999999
 30
0.0
 11
429.328427
 21
524.5
 31
0.0
  0
LINE
  5
509
330
1E
100
AcDbEntity
  8
1
  6
DOT
 62
     3
100
AcDbLine
 10
427.742641
 20
521.4999999999999
 30
0.0
 11
430.7426409999999
 21
524.5
 31
0.0
  0
LINE
  5
50A
330
1E
100
AcDbEntity
  8
1
  6
DOT
 62
     3
100
AcDbLine
 10
429.156854
 20
521.4999999999999
 30
0.0
 11
432.156854
 21
524.5
 31
0.0
  0
LINE
  5
50B
330
1E
100
AcDbEntity
  8
1
  6
DOT
 62
     3
100
AcDbLine
 10
430.571068
 20
521.4999999999999
 30
0.0
 11
433.571068
 21
524.5
 31
0.0
  0
LINE
  5
50C
330
1E
100
AcDbEntity
  8
1
  6
DOT
 62
     3
100
AcDbLine
 10
431.9852809999999
 20
521.4999999999999
 30
0.0
 11
434.9852809999999
 21
524.5
 31
0.0
  0
LINE
  5
50D
330
1E
100
AcDbEntity
  8
1
  6
DOT
 62
     3
100
AcDbLine
 10
433.399495
 20
521.4999999999999
 30
0.0
 11
436.0
 21
524.100505
 31
0.0
  0
LINE
  5
50E
330
1E
100
AcDbEntity
  8
1
  6
DOT
 62
     3
100
AcDbLine
 10
434.8137079999999
 20
521.4999999999999
 30
0.0
 11
436.0
 21
522.686292
 31
0.0
  0
LINE
  5
50F
330
1E
100
AcDbEntity
  8
1
  6
DOT
 62
     3
100
AcDbLine
 10
422.0857859999999
 20
521.4999999999999
 30
0.0
 11
425.0857859999999
 21
524.5
 31
0.0
  0
LINE
  5
510
330
1E
100
AcDbEntity
  8
1
  6
DOT
 62
     3
100
AcDbLine
 10
420.6715729999999
 20
521.4999999999999
 30
0.0
 11
423.671573
 21
524.5
 31
0.0
  0
LINE
  5
511
330
1E
100
AcDbEntity
  8
1
  6
DOT
 62
     3
100
AcDbLine
 10
419.257359
 20
521.4999999999999
 30
0.0
 11
422.257359
 21
524.5
 31
0.0
  0
LINE
  5
512
330
1E
100
AcDbEntity
  8
1
  6
DOT
 62
     3
100
AcDbLine
 10
417.8431459999999
 20
521.4999999999999
 30
0.0
 11
420.8431459999999
 21
524.5
 31
0.0
  0
LINE
  5
513
330
1E
100
AcDbEntity
  8
1
  6
DOT
 62
     3
100
AcDbLine
 10
417.0
 20
522.0710679999999
 30
0.0
 11
419.428932
 21
524.5
 31
0.0
  0
LINE
  5
514
330
1E
100
AcDbEntity
  8
1
  6
DOT
 62
     3
100
AcDbLine
 10
417.0
 20
523.4852809999999
 30
0.0
 11
418.014719
 21
524.5
 31
0.0
  0
LINE
  5
515
330
1E
100
AcDbEntity
  8
1
  6
DOT
 62
     3
100
AcDbLine
 10
429.4999999999999
 20
521.4999999999999
 30
0.0
 11
426.4999999999999
 21
524.5
 31
0.0
  0
LINE
  5
516
330
1E
100
AcDbEntity
  8
1
  6
DOT
 62
     3
100
AcDbLine
 10
430.914214
 20
521.4999999999999
 30
0.0
 11
427.914214
 21
524.5
 31
0.0
  0
LINE
  5
517
330
1E
100
AcDbEntity
  8
1
  6
DOT
 62
     3
100
AcDbLine
 10
432.328427
 20
521.4999999999999
 30
0.0
 11
429.328427
 21
524.5
 31
0.0
  0
LINE
  5
518
330
1E
100
AcDbEntity
  8
1
  6
DOT
 62
     3
100
AcDbLine
 10
433.7426409999999
 20
521.4999999999999
 30
0.0
 11
430.7426409999999
 21
524.5
 31
0.0
  0
LINE
  5
519
330
1E
100
AcDbEntity
  8
1
  6
DOT
 62
     3
100
AcDbLine
 10
435.156854
 20
521.4999999999999
 30
0.0
 11
432.156854
 21
524.5
 31
0.0
  0
LINE
  5
51A
330
1E
100
AcDbEntity
  8
1
  6
DOT
 62
     3
100
AcDbLine
 10
436.0
 20
522.0710679999999
 30
0.0
 11
433.571068
 21
524.5
 31
0.0
  0
LINE
  5
51B
330
1E
100
AcDbEntity
  8
1
  6
DOT
 62
     3
100
AcDbLine
 10
436.0
 20
523.4852809999999
 30
0.0
 11
434.9852809999999
 21
524.5
 31
0.0
  0
LINE
  5
51C
330
1E
100
AcDbEntity
  8
1
  6
DOT
 62
     3
100
AcDbLine
 10
428.085786
 20
521.4999999999999
 30
0.0
 11
425.0857859999999
 21
524.5
 31
0.0
  0
LINE
  5
51D
330
1E
100
AcDbEntity
  8
1
  6
DOT
 62
     3
100
AcDbLine
 10
426.671573
 20
521.4999999999999
 30
0.0
 11
423.671573
 21
524.5
 31
0.0
  0
LINE
  5
51E
330
1E
100
AcDbEntity
  8
1
  6
DOT
 62
     3
100
AcDbLine
 10
425.2573589999999
 20
521.4999999999999
 30
0.0
 11
422.257359
 21
524.5
 31
0.0
  0
LINE
  5
51F
330
1E
100
AcDbEntity
  8
1
  6
DOT
 62
     3
100
AcDbLine
 10
423.843146
 20
521.4999999999999
 30
0.0
 11
420.8431459999999
 21
524.5
 31
0.0
  0
LINE
  5
520
330
1E
100
AcDbEntity
  8
1
  6
DOT
 62
     3
100
AcDbLine
 10
422.4289319999999
 20
521.4999999999999
 30
0.0
 11
419.428932
 21
524.5
 31
0.0
  0
LINE
  5
521
330
1E
100
AcDbEntity
  8
1
  6
DOT
 62
     3
100
AcDbLine
 10
421.0147189999999
 20
521.4999999999999
 30
0.0
 11
418.014719
 21
524.5
 31
0.0
  0
LINE
  5
522
330
1E
100
AcDbEntity
  8
1
  6
DOT
 62
     3
100
AcDbLine
 10
417.0
 20
524.100505
 30
0.0
 11
419.600505
 21
521.4999999999999
 31
0.0
  0
LINE
  5
523
330
1E
100
AcDbEntity
  8
1
  6
DOT
 62
     3
100
AcDbLine
 10
417.0
 20
522.686292
 30
0.0
 11
418.1862919999999
 21
521.4999999999999
 31
0.0
  0
LINE
  5
524
330
1E
100
AcDbEntity
  8
1
  6
DASHED
100
AcDbLine
 10
417.0
 20
518.5
 30
0.0
 11
417.0
 21
537.0
 31
0.0
  0
LINE
  5
525
330
1E
100
AcDbEntity
  8
1
100
AcDbLine
 10
417.0
 20
537.0
 30
0.0
 11
417.0
 21
541.5
 31
0.0
  0
LINE
  5
596
330
1E
100
AcDbEntity
  8
1
100
AcDbLine
 10
346.0
 20
541.5
 30
0.0
 11
346.0
 21
552.0
 31
0.0
  0
LINE
  5
597
330
1E
100
AcDbEntity
  8
1
100
AcDbLine
 10
346.0
 20
541.5
 30
0.0
 11
394.0
 21
541.5
 31
0.0
  0
LINE
  5
598
330
1E
100
AcDbEntity
  8
1
100
AcDbLine
 10
394.0
 20
541.5
 30
0.0
 11
394.0
 21
552.0
 31
0.0
  0
LINE
  5
599
330
1E
100
AcDbEntity
  8
1
 62
     3
100
AcDbLine
 10
338.3427049999999
 20
537.7216869999999
 30
0.0
 11
359.333333
 21
541.5
 31
0.0
  0
LINE
  5
59A
330
1E
100
AcDbEntity
  8
1
 62
     3
100
AcDbLine
 10
394.0
 20
547.74
 30
0.0
 11
412.0
 21
550.98
 31
0.0
  0
LINE
  5
59B
330
1E
100
AcDbEntity
  8
1
100
AcDbLine
 10
196.0
 20
732.2499999999999
 30
0.0
 11
196.0
 21
712.75
 31
0.0
  0
LINE
  5
59C
330
1E
100
AcDbEntity
  8
1
100
AcDbLine
 10
209.0
 20
733.4999999999999
 30
0.0
 11
209.0
 21
711.5
 31
0.0
  0
LINE
  5
59D
330
1E
100
AcDbEntity
  8
1
100
AcDbLine
 10
198.0
 20
735.5
 30
0.0
 11
207.0
 21
735.5
 31
0.0
  0
LINE
  5
59E
330
1E
100
AcDbEntity
  8
1
100
AcDbLine
 10
198.0
 20
709.4999999999999
 30
0.0
 11
207.0
 21
709.4999999999999
 31
0.0
  0
LINE
  5
59F
330
1E
100
AcDbEntity
  8
1
100
AcDbLine
 10
209.0
 20
733.4999999999999
 30
0.0
 11
214.0
 21
733.4999999999999
 31
0.0
  0
LINE
  5
5A0
330
1E
100
AcDbEntity
  8
1
100
AcDbLine
 10
209.0
 20
711.5
 30
0.0
 11
214.0
 21
711.5
 31
0.0
  0
LINE
  5
5A1
330
1E
100
AcDbEntity
  8
1
100
AcDbLine
 10
198.0
 20
729.0
 30
0.0
 11
207.0
 21
729.0
 31
0.0
  0
LINE
  5
5A2
330
1E
100
AcDbEntity
  8
1
100
AcDbLine
 10
198.0
 20
716.0
 30
0.0
 11
209.0
 21
716.0
 31
0.0
  0
ARC
  5
5A3
330
1E
100
AcDbEntity
  8
1
100
AcDbCircle
 10
199.6406249999999
 20
732.2499999999999
 30
0.0
 40
3.640625
100
AcDbArc
 50
116.7849959999999
 51
243.2150039999999
  0
ARC
  5
5A4
330
1E
100
AcDbEntity
  8
1
100
AcDbCircle
 10
207.5625
 20
722.5
 30
0.0
 40
11.5625
100
AcDbArc
 50
145.7945419999999
 51
214.205458
  0
ARC
  5
5A5
330
1E
100
AcDbEntity
  8
1
100
AcDbCircle
 10
199.6406249999999
 20
712.75
 30
0.0
 40
3.640625
100
AcDbArc
 50
116.7849959999999
 51
243.2150039999999
  0
ARC
  5
5A6
330
1E
100
AcDbEntity
  8
1
100
AcDbCircle
 10
205.359375
 20
732.2499999999999
 30
0.0
 40
3.640625
100
AcDbArc
 50
296.7849959999999
 51
63.215004
  0
ARC
  5
5A7
330
1E
100
AcDbEntity
  8
1
100
AcDbCircle
 10
197.4375
 20
722.5
 30
0.0
 40
11.5625
100
AcDbArc
 50
325.7945419999999
 51
34.205458
  0
ARC
  5
5A8
330
1E
100
AcDbEntity
  8
1
100
AcDbCircle
 10
205.359375
 20
712.75
 30
0.0
 40
3.640625
100
AcDbArc
 50
296.7849959999999
 51
63.215004
  0
LINE
  5
5A9
330
1E
100
AcDbEntity
  8
1
  6
CENTER
100
AcDbLine
 10
436.0
 20
180.4999999999999
 30
0.0
 11
436.0
 21
553.5
 31
0.0
  0
LINE
  5
5AA
330
1E
100
AcDbEntity
  8
1
  6
CENTER
 62
     1
100
AcDbLine
 10
436.0
 20
553.5
 30
0.0
 11
436.0
 21
672.5
 31
0.0
  0
TEXT
  5
5BE
330
1E
100
AcDbEntity
  8
2
100
AcDbText
 10
893.0
 20
817.5
 30
0.0
 40
7.0
  1
本体ユニット上部
100
AcDbText
  0
TEXT
  5
5C3
330
1E
100
AcDbEntity
  8
2
100
AcDbText
 10
893.0
 20
785.5
 30
0.0
 40
7.0
  1
Ｖ－クランプ
100
AcDbText
  0
TEXT
  5
5CA
330
1E
100
AcDbEntity
  8
2
100
AcDbText
 10
893.0
 20
769.5
 30
0.0
 40
7.0
  1
ハウジングガスケット
100
AcDbText
  0
TEXT
  5
5D0
330
1E
100
AcDbEntity
  8
2
100
AcDbText
 10
893.0
 20
753.5
 30
0.0
 40
7.0
  1
ＩＮ側バルクヘッド
100
AcDbText
  0
TEXT
  5
5D6
330
1E
100
AcDbEntity
  8
2
100
AcDbText
 10
893.0
 20
721.4999999999999
 30
0.0
 40
7.0
  1
カートリッジ接続用Ｏリング
100
AcDbText
  0
TEXT
  5
5DC
330
1E
100
AcDbEntity
  8
2
100
AcDbText
 10
893.0
 20
737.5
 30
0.0
 40
7.0
  1
ＯＵＴ側バルクヘッド
100
AcDbText
  0
TEXT
  5
5E2
330
1E
100
AcDbEntity
  8
2
100
AcDbText
 10
893.0
 20
705.4999999999999
 30
0.0
 40
7.0
  1
１－３／４ソケット
100
AcDbText
  0
TEXT
  5
5F4
330
1E
100
AcDbEntity
  8
2
100
AcDbText
 10
893.0
 20
689.5
 30
0.0
 40
7.0
  1
３／４ニップル
100
AcDbText
  0
TEXT
  5
5FA
330
1E
100
AcDbEntity
  8
2
100
AcDbText
 10
1078.0
 20
817.5
 30
0.0
 40
7.0
  1
カートリッジ仕組
100
AcDbText
  0
TEXT
  5
600
330
1E
100
AcDbEntity
  8
2
100
AcDbText
 10
1078.0
 20
801.5
 30
0.0
 40
7.0
  1
超微粒子活性炭
100
AcDbText
  0
TEXT
  5
606
330
1E
100
AcDbEntity
  8
2
100
AcDbText
 10
1078.0
 20
785.5
 30
0.0
 40
7.0
  1
ホルダー　上側
100
AcDbText
  0
TEXT
  5
60C
330
1E
100
AcDbEntity
  8
2
100
AcDbText
 10
1078.0
 20
769.5
 30
0.0
 40
7.0
  1
ホルダー　下側
100
AcDbText
  0
TEXT
  5
612
330
1E
100
AcDbEntity
  8
2
100
AcDbText
 10
1078.0
 20
753.5
 30
0.0
 40
7.0
  1
ホルダー固定ナット
100
AcDbText
  0
TEXT
  5
618
330
1E
100
AcDbEntity
  8
2
100
AcDbText
 10
1078.0
 20
737.5
 30
0.0
 40
7.0
  1
ホルダー固定棒
100
AcDbText
  0
TEXT
  5
61E
330
1E
100
AcDbEntity
  8
2
100
AcDbText
 10
1078.0
 20
721.4999999999999
 30
0.0
 40
7.0
  1
スプリング
100
AcDbText
  0
TEXT
  5
623
330
1E
100
AcDbEntity
  8
2
100
AcDbText
 10
1078.0
 20
705.4999999999999
 30
0.0
 40
7.0
  1
カートリッジおさえ
100
AcDbText
  0
TEXT
  5
628
330
1E
100
AcDbEntity
  8
2
100
AcDbText
 10
1078.0
 20
689.5
 30
0.0
 40
7.0
  1
絶縁パット
100
AcDbText
  0
TEXT
  5
62E
330
1E
100
AcDbEntity
  8
2
100
AcDbText
 10
1078.0
 20
673.5
 30
0.0
 40
7.0
  1
Ｖ－クランプナット
100
AcDbText
  0
TEXT
  5
631
330
1E
100
AcDbEntity
  8
2
100
AcDbText
 10
893.0
 20
673.5
 30
0.0
 40
7.0
  1
逆止弁
100
AcDbText
  0
TEXT
  5
633
330
1E
100
AcDbEntity
  8
2
100
AcDbText
 10
893.0
 20
801.5
 30
0.0
 40
7.0
  1
本体ユニット下部
100
AcDbText
  0
TEXT
  5
651
330
1E
100
AcDbEntity
  8
2
100
AcDbText
 10
893.0
 20
657.5
 30
0.0
 40
7.0
  1
フレキ管
100
AcDbText
  0
LINE
  5
660
330
1E
100
AcDbEntity
  8
3
 62
     4
100
AcDbLine
 10
450.823085
 20
618.5
 30
0.0
 11
452.944406
 21
620.6213199999999
 31
0.0
  0
LINE
  5
661
330
1E
100
AcDbEntity
  8
3
 62
     4
100
AcDbLine
 10
450.823085
 20
618.5
 30
0.0
 11
453.720863
 21
619.276457
 31
0.0
  0
LINE
  5
66A
330
1E
100
AcDbEntity
  8
3
 62
     4
100
AcDbLine
 10
528.8423230000001
 20
490.5
 30
0.0
 11
530.963644
 21
492.62132
 31
0.0
  0
LINE
  5
66B
330
1E
100
AcDbEntity
  8
3
 62
     4
100
AcDbLine
 10
528.8423230000001
 20
490.5
 30
0.0
 11
531.740101
 21
491.276457
 31
0.0
  0
LINE
  5
66D
330
1E
100
AcDbEntity
  8
3
 62
     4
100
AcDbLine
 10
323.8275499999999
 20
445.5
 30
0.0
 11
320.929772
 21
446.276457
 31
0.0
  0
LINE
  5
66E
330
1E
100
AcDbEntity
  8
3
 62
     4
100
AcDbLine
 10
323.8275499999999
 20
445.5
 30
0.0
 11
321.706229
 21
447.62132
 31
0.0
  0
LINE
  5
674
330
1E
100
AcDbEntity
  8
3
 62
     4
100
AcDbLine
 10
545.9375539999999
 20
164.562446
 30
0.0
 11
547.4375539999999
 21
161.96437
 31
0.0
  0
LINE
  5
675
330
1E
100
AcDbEntity
  8
3
 62
     4
100
AcDbLine
 10
545.9375539999999
 20
164.562446
 30
0.0
 11
548.5356299999999
 21
163.062446
 31
0.0
  0
LINE
  5
67A
330
1E
100
AcDbEntity
  8
3
 62
     4
100
AcDbLine
 10
491.5
 20
442.323085
 30
0.0
 11
492.276457
 21
445.220863
 31
0.0
  0
LINE
  5
67B
330
1E
100
AcDbEntity
  8
3
 62
     4
100
AcDbLine
 10
491.5
 20
442.323085
 30
0.0
 11
493.62132
 21
444.444406
 31
0.0
  0
TEXT
  5
67C
330
1E
100
AcDbEntity
  8
3
100
AcDbText
 10
145.4149234210535
 20
748.4154787931493
 30
0.0
 40
8.0
  1
10
100
AcDbText
  0
LINE
  5
67D
330
1E
100
AcDbEntity
  8
3
 62
     4
100
AcDbLine
 10
150.0
 20
758.4999999999999
 30
0.0
 11
158.0
 21
758.4999999999999
 31
0.0
  0
LINE
  5
67E
330
1E
100
AcDbEntity
  8
3
 62
     4
100
AcDbLine
 10
150.0
 20
746.4999999999999
 30
0.0
 11
158.0
 21
746.4999999999999
 31
0.0
  0
ARC
  5
67F
330
1E
100
AcDbEntity
  8
3
 62
     4
100
AcDbCircle
 10
150.0
 20
752.5
 30
0.0
 40
6.0
100
AcDbArc
 50
90.0
 51
270.0
  0
ARC
  5
680
330
1E
100
AcDbEntity
  8
3
 62
     4
100
AcDbCircle
 10
158.0
 20
752.5
 30
0.0
 40
6.0
100
AcDbArc
 50
270.0
 51
90.0
  0
LINE
  5
681
330
1E
100
AcDbEntity
  8
3
 62
     4
100
AcDbLine
 10
202.1672959999999
 20
727.0
 30
0.0
 11
199.269518
 21
727.776457
 31
0.0
  0
LINE
  5
682
330
1E
100
AcDbEntity
  8
3
 62
     4
100
AcDbLine
 10
202.1672959999999
 20
727.0
 30
0.0
 11
200.045975
 21
729.1213199999999
 31
0.0
  0
LINE
  5
687
330
1E
100
AcDbEntity
  8
3
 62
     4
100
AcDbLine
 10
340.1576769999999
 20
265.5
 30
0.0
 11
337.259899
 21
266.2764569999999
 31
0.0
  0
LINE
  5
688
330
1E
100
AcDbEntity
  8
3
 62
     4
100
AcDbLine
 10
340.1576769999999
 20
265.5
 30
0.0
 11
338.036356
 21
267.62132
 31
0.0
  0
LINE
  5
68D
330
1E
100
AcDbEntity
  8
3
 62
     4
100
AcDbLine
 10
366.138439
 20
226.5
 30
0.0
 11
364.017118
 21
224.37868
 31
0.0
  0
LINE
  5
68E
330
1E
100
AcDbEntity
  8
3
 62
     4
100
AcDbLine
 10
366.138439
 20
226.5
 30
0.0
 11
363.2406609999999
 21
225.723543
 31
0.0
  0
TEXT
  5
68F
330
1E
100
AcDbEntity
  8
3
100
AcDbText
 10
254.2142312485034
 20
394.47664982181
 30
0.0
 40
8.0
  1
12-1
100
AcDbText
  0
LINE
  5
694
330
1E
100
AcDbEntity
  8
3
 62
     4
100
AcDbLine
 10
353.148058
 20
358.0
 30
0.0
 11
350.2502799999999
 21
358.776457
 31
0.0
  0
LINE
  5
695
330
1E
100
AcDbEntity
  8
3
 62
     4
100
AcDbLine
 10
353.148058
 20
358.0
 30
0.0
 11
351.026737
 21
360.12132
 31
0.0
  0
LINE
  5
69A
330
1E
100
AcDbEntity
  8
3
 62
     4
100
AcDbLine
 10
361.2399919999999
 20
237.464343
 30
0.0
 11
358.641916
 21
235.964343
 31
0.0
  0
LINE
  5
69B
330
1E
100
AcDbEntity
  8
3
 62
     4
100
AcDbLine
 10
361.2399919999999
 20
237.464343
 30
0.0
 11
358.2399919999999
 21
237.464343
 31
0.0
  0
LINE
  5
6A0
330
1E
100
AcDbEntity
  8
3
 62
     4
100
AcDbLine
 10
340.1576769999999
 20
489.0
 30
0.0
 11
337.259899
 21
489.776457
 31
0.0
  0
LINE
  5
6A1
330
1E
100
AcDbEntity
  8
3
 62
     4
100
AcDbLine
 10
340.1576769999999
 20
489.0
 30
0.0
 11
338.036356
 21
491.12132
 31
0.0
  0
LINE
  5
6AA
330
1E
100
AcDbEntity
  8
3
 62
     4
100
AcDbLine
 10
450.823085
 20
588.4999999999999
 30
0.0
 11
452.944406
 21
590.6213199999999
 31
0.0
  0
LINE
  5
6AB
330
1E
100
AcDbEntity
  8
3
 62
     4
100
AcDbLine
 10
450.823085
 20
588.4999999999999
 30
0.0
 11
453.720863
 21
589.276457
 31
0.0
  0
TEXT
  5
6AC
330
1E
100
AcDbEntity
  8
3
100
AcDbText
 10
582.0
 20
519.3764486452059
 30
0.0
 40
8.0
  1
1
100
AcDbText
  0
TEXT
  5
6AD
330
1E
100
AcDbEntity
  8
3
100
AcDbText
 10
266.8027598368612
 20
471.9088404407503
 30
0.0
 40
8.0
  1
4
100
AcDbText
  0
TEXT
  5
6AE
330
1E
100
AcDbEntity
  8
3
100
AcDbText
 10
316.2124602175504
 20
564.3632169262969
 30
0.0
 40
8.0
  1
5
100
AcDbText
  0
TEXT
  5
6AF
330
1E
100
AcDbEntity
  8
3
100
AcDbText
 10
481.8801978090132
 20
564.6409265507381
 30
0.0
 40
8.0
  1
6
100
AcDbText
  0
TEXT
  5
6B0
330
1E
100
AcDbEntity
  8
3
100
AcDbText
 10
482.1972401631391
 20
521.7117866023641
 30
0.0
 40
8.0
  1
7
100
AcDbText
  0
TEXT
  5
6B3
330
1E
100
AcDbEntity
  8
3
100
AcDbText
 10
477.5401730240928
 20
602.4167970752696
 30
0.0
 40
8.0
  1
8
100
AcDbText
  0
TEXT
  5
6B4
330
1E
100
AcDbEntity
  8
3
100
AcDbText
 10
478.1663244276155
 20
632.8338358196683
 30
0.0
 40
8.0
  1
9
100
AcDbText
  0
TEXT
  5
6B5
330
1E
100
AcDbEntity
  8
3
100
AcDbText
 10
577.635261205829
 20
124.271211005011
 30
0.0
 40
8.0
  1
13
100
AcDbText
  0
TEXT
  5
6B6
330
1E
100
AcDbEntity
  8
3
100
AcDbText
 10
505.4999999999999
 20
469.4088404407502
 30
0.0
 40
8.0
  1
14
100
AcDbText
  0
TEXT
  5
6B7
330
1E
100
AcDbEntity
  8
3
100
AcDbText
 10
253.4193078840439
 20
294.0795585556725
 30
0.0
 40
8.0
  1
12-3
100
AcDbText
  0
TEXT
  5
6B8
330
1E
100
AcDbEntity
  8
3
100
AcDbText
 10
253.3217821154689
 20
174.1616793169628
 30
0.0
 40
8.0
  1
12-4
100
AcDbText
  0
TEXT
  5
6B9
330
1E
100
AcDbEntity
  8
3
100
AcDbText
 10
253.4193078840439
 20
349.0795585556725
 30
0.0
 40
8.0
  1
12-5
100
AcDbText
  0
TEXT
  5
6BA
330
1E
100
AcDbEntity
  8
3
100
AcDbText
 10
253.3217821154689
 20
212.1616793169628
 30
0.0
 40
8.0
  1
12-6
100
AcDbText
  0
TEXT
  5
6BB
330
1E
100
AcDbEntity
  8
3
100
AcDbText
 10
254.1501516981311
 20
517.8632188822043
 30
0.0
 40
8.0
  1
12-7
100
AcDbText
  0
LINE
  5
6BC
330
1E
100
AcDbEntity
  8
3
 62
     4
100
AcDbLine
 10
370.0
 20
758.4999999999999
 30
0.0
 11
378.0
 21
758.4999999999999
 31
0.0
  0
LINE
  5
6BD
330
1E
100
AcDbEntity
  8
3
 62
     4
100
AcDbLine
 10
370.0
 20
746.4999999999999
 30
0.0
 11
378.0
 21
746.4999999999999
 31
0.0
  0
ARC
  5
6BE
330
1E
100
AcDbEntity
  8
3
 62
     4
100
AcDbCircle
 10
370.0
 20
752.5
 30
0.0
 40
6.0
100
AcDbArc
 50
90.0
 51
270.0
  0
ARC
  5
6BF
330
1E
100
AcDbEntity
  8
3
 62
     4
100
AcDbCircle
 10
378.0
 20
752.5
 30
0.0
 40
6.0
100
AcDbArc
 50
270.0
 51
90.0
  0
LINE
  5
6C0
330
1E
100
AcDbEntity
  8
3
 62
     4
100
AcDbLine
 10
325.8327039999999
 20
727.0
 30
0.0
 11
327.954025
 21
729.1213199999999
 31
0.0
  0
LINE
  5
6C1
330
1E
100
AcDbEntity
  8
3
 62
     4
100
AcDbLine
 10
325.8327039999999
 20
727.0
 30
0.0
 11
328.730482
 21
727.776457
 31
0.0
  0
TEXT
  5
6C2
330
1E
100
AcDbEntity
  8
3
100
AcDbText
 10
365.8437120389285
 20
748.2192933779997
 30
0.0
 40
8.0
  1
11
100
AcDbText
  0
LINE
  5
6C3
330
1E
100
AcDbEntity
  8
3
 62
     4
100
AcDbLine
 10
289.9282029999999
 20
294.4999999999999
 30
0.0
 11
340.1576769999999
 21
265.5
 31
0.0
  0
LINE
  5
6C4
330
1E
100
AcDbEntity
  8
3
 62
     4
100
AcDbLine
 10
289.9282029999999
 20
518.0
 30
0.0
 11
340.1576769999999
 21
489.0
 31
0.0
  0
LINE
  5
6C9
330
1E
100
AcDbEntity
  8
3
 62
     4
100
AcDbLine
 10
340.275649
 20
502.7243509999999
 30
0.0
 11
337.6775729999999
 21
504.2243509999999
 31
0.0
  0
LINE
  5
6CA
330
1E
100
AcDbEntity
  8
3
 62
     4
100
AcDbLine
 10
340.275649
 20
502.7243509999999
 30
0.0
 11
338.775649
 21
505.3224269999999
 31
0.0
  0
TEXT
  5
6CB
330
1E
100
AcDbEntity
  8
3
100
AcDbText
 10
253.9027543154675
 20
555.8632188822043
 30
0.0
 40
8.0
  1
12-2
100
AcDbText
  0
LINE
  5
6CC
330
1E
100
AcDbEntity
  8
3
 62
     4
100
AcDbLine
 10
289.9282029999999
 20
182.5
 30
0.0
 11
366.138439
 21
226.5
 31
0.0
  0
LINE
  5
6CD
330
1E
100
AcDbEntity
  8
3
 62
     4
100
AcDbLine
 10
289.9282029999999
 20
394.5
 30
0.0
 11
353.148058
 21
358.0
 31
0.0
  0
LINE
  5
6CE
330
1E
100
AcDbEntity
  8
3
 62
     4
100
AcDbLine
 10
366.138439
 20
305.5
 30
0.0
 11
363.2406609999999
 21
306.276457
 31
0.0
  0
LINE
  5
6CF
330
1E
100
AcDbEntity
  8
3
 62
     4
100
AcDbLine
 10
366.138439
 20
305.5
 30
0.0
 11
364.017118
 21
307.62132
 31
0.0
  0
LINE
  5
6D0
330
1E
100
AcDbEntity
  8
3
 62
     4
100
AcDbLine
 10
289.9282029999999
 20
349.5
 30
0.0
 11
366.138439
 21
305.5
 31
0.0
  0
LINE
  5
6D1
330
1E
100
AcDbEntity
  8
3
 62
     4
100
AcDbLine
 10
164.9282029999999
 20
748.5
 30
0.0
 11
202.1672959999999
 21
727.0
 31
0.0
  0
LINE
  5
6D2
330
1E
100
AcDbEntity
  8
3
 62
     4
100
AcDbLine
 10
363.071797
 20
748.5
 30
0.0
 11
325.8327039999999
 21
727.0
 31
0.0
  0
LINE
  5
6D3
330
1E
100
AcDbEntity
  8
3
 62
     4
100
AcDbLine
 10
475.0717969999999
 20
602.5
 30
0.0
 11
450.823085
 21
588.4999999999999
 31
0.0
  0
LINE
  5
6D4
330
1E
100
AcDbEntity
  8
3
 62
     4
100
AcDbLine
 10
475.0717969999999
 20
632.5
 30
0.0
 11
450.823085
 21
618.5
 31
0.0
  0
LINE
  5
6D5
330
1E
100
AcDbEntity
  8
3
 62
     4
100
AcDbLine
 10
456.8923049999999
 20
526.0
 30
0.0
 11
434.4999999999999
 21
523.0
 31
0.0
  0
LINE
  5
6D6
330
1E
100
AcDbEntity
  8
3
 62
     4
100
AcDbLine
 10
456.8923049999999
 20
526.0
 30
0.0
 11
434.4999999999999
 21
529.0
 31
0.0
  0
LINE
  5
6D7
330
1E
100
AcDbEntity
  8
3
 62
     4
100
AcDbLine
 10
456.8923049999999
 20
526.0
 30
0.0
 11
478.0
 21
526.0
 31
0.0
  0
LINE
  5
6D8
330
1E
100
AcDbEntity
  8
3
 62
     4
100
AcDbLine
 10
505.4999998425527
 20
466.5717968606267
 30
0.0
 11
491.5
 21
442.323085
 31
0.0
  0
LINE
  5
6D9
330
1E
100
AcDbEntity
  8
3
 62
     4
100
AcDbLine
 10
576.3431457505076
 20
134.1568542494923
 30
0.0
 11
545.9375539999999
 21
164.562446
 31
0.0
  0
LINE
  5
6DC
330
1E
100
AcDbEntity
  8
3
 62
     4
100
AcDbLine
 10
354.7733299999999
 20
559.182514
 30
0.0
 11
351.7733299999999
 21
559.182514
 31
0.0
  0
LINE
  5
6DD
330
1E
100
AcDbEntity
  8
3
 62
     4
100
AcDbLine
 10
354.7733299999999
 20
559.182514
 30
0.0
 11
352.175254
 21
560.6825139999999
 31
0.0
  0
LINE
  5
6DE
330
1E
100
AcDbEntity
  8
3
 62
     4
100
AcDbLine
 10
327.7274069999999
 20
566.4294480000001
 30
0.0
 11
354.7733299999999
 21
559.182514
 31
0.0
  0
LINE
  5
6DF
330
1E
100
AcDbEntity
  8
3
 62
     4
100
AcDbLine
 10
579.0717969999999
 20
519.5
 30
0.0
 11
528.8423230000001
 21
490.5
 31
0.0
  0
LINE
  5
6E0
330
1E
100
AcDbEntity
  8
3
 62
     4
100
AcDbLine
 10
528.8423230000001
 20
295.5
 30
0.0
 11
530.963644
 21
297.62132
 31
0.0
  0
LINE
  5
6E1
330
1E
100
AcDbEntity
  8
3
 62
     4
100
AcDbLine
 10
528.8423230000001
 20
295.5
 30
0.0
 11
531.740101
 21
296.276457
 31
0.0
  0
LINE
  5
6E2
330
1E
100
AcDbEntity
  8
3
 62
     4
100
AcDbLine
 10
579.0717969999999
 20
324.5
 30
0.0
 11
528.8423230000001
 21
295.5
 31
0.0
  0
TEXT
  5
6E4
330
1E
100
AcDbEntity
  8
3
100
AcDbText
 10
582.0
 20
325.0
 30
0.0
 40
8.0
  1
2
100
AcDbText
  0
LINE
  5
6E6
330
1E
100
AcDbEntity
  8
3
 62
     4
100
AcDbLine
 10
580.803848
 20
475.4999999999999
 30
0.0
 11
528.8423230000001
 21
445.5
 31
0.0
  0
LINE
  5
6E7
330
1E
100
AcDbEntity
  8
3
 62
     4
100
AcDbLine
 10
528.8423230000001
 20
445.5
 30
0.0
 11
531.740101
 21
446.276457
 31
0.0
  0
LINE
  5
6E8
330
1E
100
AcDbEntity
  8
3
 62
     4
100
AcDbLine
 10
528.8423230000001
 20
445.5
 30
0.0
 11
530.963644
 21
447.62132
 31
0.0
  0
TEXT
  5
6E9
330
1E
100
AcDbEntity
  8
3
100
AcDbText
 10
584.2023224508498
 20
475.2984216513023
 30
0.0
 40
8.0
  1
3
100
AcDbText
  0
LINE
  5
6EA
330
1E
100
AcDbEntity
  8
3
 62
     4
100
AcDbLine
 10
277.9282029999999
 20
472.0
 30
0.0
 11
323.8275499999999
 21
445.5
 31
0.0
  0
LINE
  5
6EB
330
1E
100
AcDbEntity
  8
3
 62
     4
100
AcDbLine
 10
612.0
 20
730.0
 30
0.0
 11
612.0
 21
715.0
 31
0.0
  0
LINE
  5
6EC
330
1E
100
AcDbEntity
  8
3
 62
     4
100
AcDbLine
 10
642.0
 20
737.5
 30
0.0
 11
662.0
 21
722.5
 31
0.0
  0
LINE
  5
6ED
330
1E
100
AcDbEntity
  8
3
 62
     4
100
AcDbLine
 10
662.0
 20
722.5
 30
0.0
 11
642.0
 21
707.5
 31
0.0
  0
LINE
  5
6EE
330
1E
100
AcDbEntity
  8
3
 62
     4
100
AcDbLine
 10
642.0
 20
730.0
 30
0.0
 11
612.0
 21
730.0
 31
0.0
  0
LINE
  5
6EF
330
1E
100
AcDbEntity
  8
3
 62
     4
100
AcDbLine
 10
642.0
 20
715.0
 30
0.0
 11
612.0
 21
715.0
 31
0.0
  0
LINE
  5
6F0
330
1E
100
AcDbEntity
  8
3
 62
     4
100
AcDbLine
 10
642.0
 20
707.5
 30
0.0
 11
642.0
 21
715.0
 31
0.0
  0
LINE
  5
6F1
330
1E
100
AcDbEntity
  8
3
 62
     4
100
AcDbLine
 10
642.0
 20
730.0
 30
0.0
 11
642.0
 21
737.5
 31
0.0
  0
TEXT
  5
6F2
330
1E
100
AcDbEntity
  8
3
100
AcDbText
 10
618.0
 20
719.0
 30
0.0
 40
8.0
  1
出　口
100
AcDbText
  0
LINE
  5
6F3
330
1E
100
AcDbEntity
  8
3
 62
     4
100
AcDbLine
 10
126.0
 20
730.0
 30
0.0
 11
126.0
 21
715.0
 31
0.0
  0
LINE
  5
6F4
330
1E
100
AcDbEntity
  8
3
 62
     4
100
AcDbLine
 10
156.0
 20
737.5
 30
0.0
 11
176.0
 21
722.5
 31
0.0
  0
LINE
  5
6F5
330
1E
100
AcDbEntity
  8
3
 62
     4
100
AcDbLine
 10
176.0
 20
722.5
 30
0.0
 11
156.0
 21
707.5
 31
0.0
  0
LINE
  5
6F6
330
1E
100
AcDbEntity
  8
3
 62
     4
100
AcDbLine
 10
156.0
 20
730.0
 30
0.0
 11
126.0
 21
730.0
 31
0.0
  0
LINE
  5
6F7
330
1E
100
AcDbEntity
  8
3
 62
     4
100
AcDbLine
 10
156.0
 20
715.0
 30
0.0
 11
126.0
 21
715.0
 31
0.0
  0
LINE
  5
6F8
330
1E
100
AcDbEntity
  8
3
 62
     4
100
AcDbLine
 10
156.0
 20
707.5
 30
0.0
 11
156.0
 21
715.0
 31
0.0
  0
LINE
  5
6F9
330
1E
100
AcDbEntity
  8
3
 62
     4
100
AcDbLine
 10
156.0
 20
730.0
 30
0.0
 11
156.0
 21
737.5
 31
0.0
  0
TEXT
  5
6FA
330
1E
100
AcDbEntity
  8
3
100
AcDbText
 10
132.0
 20
719.0
 30
0.0
 40
8.0
  1
入　口
100
AcDbText
  0
LINE
  5
6FB
330
1E
100
AcDbEntity
  8
3
 62
     4
100
AcDbLine
 10
451.22667
 20
559.182514
 30
0.0
 11
454.2266699999999
 21
559.182514
 31
0.0
  0
LINE
  5
6FC
330
1E
100
AcDbEntity
  8
3
 62
     4
100
AcDbLine
 10
451.22667
 20
559.182514
 30
0.0
 11
453.824746
 21
560.6825139999999
 31
0.0
  0
LINE
  5
6FD
330
1E
100
AcDbEntity
  8
3
 62
     4
100
AcDbLine
 10
478.2725929999999
 20
566.4294480000001
 30
0.0
 11
451.22667
 21
559.182514
 31
0.0
  0
LINE
  5
6FE
330
1E
100
AcDbEntity
  8
3
 62
     4
100
AcDbLine
 10
288.656854
 20
554.343146
 30
0.0
 11
340.275649
 21
502.7243509999999
 31
0.0
  0
LINE
  5
6FF
330
1E
100
AcDbEntity
  8
3
 62
     4
100
AcDbLine
 10
290.7274069999999
 20
218.5705519999999
 30
0.0
 11
361.2399919999999
 21
237.464343
 31
0.0
  0
LINE
  5
700
330
1E
100
AcDbEntity
  8
3
 62
     4
100
AcDbLine
 10
434.4999999999999
 20
529.0
 30
0.0
 11
437.47522
 21
529.3847909999999
 31
0.0
  0
LINE
  5
701
330
1E
100
AcDbEntity
  8
3
 62
     4
100
AcDbLine
 10
434.4999999999999
 20
529.0
 30
0.0
 11
437.269012
 21
527.845628
 31
0.0
  0
LINE
  5
702
330
1E
100
AcDbEntity
  8
3
 62
     4
100
AcDbLine
 10
434.4999999999999
 20
523.0
 30
0.0
 11
437.269012
 21
524.154372
 31
0.0
  0
LINE
  5
703
330
1E
100
AcDbEntity
  8
3
 62
     4
100
AcDbLine
 10
434.4999999999999
 20
523.0
 30
0.0
 11
437.47522
 21
522.615209
 31
0.0
  0
LINE
  5
704
330
1E
100
AcDbEntity
  8
3
 62
     4
100
AcDbLine
 10
150.0
 20
760.5
 30
0.0
 11
158.0
 21
760.5
 31
0.0
  0
LINE
  5
705
330
1E
100
AcDbEntity
  8
3
 62
     4
100
AcDbLine
 10
150.0
 20
744.5
 30
0.0
 11
158.0
 21
744.5
 31
0.0
  0
ARC
  5
706
330
1E
100
AcDbEntity
  8
3
 62
     4
100
AcDbCircle
 10
158.0
 20
752.5
 30
0.0
 40
8.0
100
AcDbArc
 50
270.0
 51
90.0
  0
ARC
  5
707
330
1E
100
AcDbEntity
  8
3
 62
     4
100
AcDbCircle
 10
150.0
 20
752.5
 30
0.0
 40
8.0
100
AcDbArc
 50
90.0
 51
270.0
  0
LINE
  5
708
330
1E
100
AcDbEntity
  8
3
 62
     4
100
AcDbLine
 10
370.0
 20
760.5
 30
0.0
 11
378.0
 21
760.5
 31
0.0
  0
LINE
  5
709
330
1E
100
AcDbEntity
  8
3
 62
     4
100
AcDbLine
 10
370.0
 20
744.5
 30
0.0
 11
378.0
 21
744.5
 31
0.0
  0
ARC
  5
70A
330
1E
100
AcDbEntity
  8
3
 62
     4
100
AcDbCircle
 10
378.0
 20
752.5
 30
0.0
 40
8.0
100
AcDbArc
 50
270.0
 51
90.0
  0
ARC
  5
70B
330
1E
100
AcDbEntity
  8
3
 62
     4
100
AcDbCircle
 10
370.0
 20
752.5
 30
0.0
 40
8.0
100
AcDbArc
 50
90.0
 51
270.0
  0
CIRCLE
  5
70C
330
1E
100
AcDbEntity
  8
3
 62
     4
100
AcDbCircle
 10
586.0
 20
328.5
 30
0.0
 40
8.0
  0
LINE
  5
70D
330
1E
100
AcDbEntity
  8
3
 62
     4
100
AcDbLine
 10
259.0
 20
406.5
 30
0.0
 11
283.0
 21
406.5
 31
0.0
  0
LINE
  5
70E
330
1E
100
AcDbEntity
  8
3
 62
     4
100
AcDbLine
 10
259.0
 20
390.5
 30
0.0
 11
283.0
 21
390.5
 31
0.0
  0
ARC
  5
70F
330
1E
100
AcDbEntity
  8
3
 62
     4
100
AcDbCircle
 10
283.0
 20
398.4999999999999
 30
0.0
 40
8.0
100
AcDbArc
 50
270.0
 51
90.0
  0
ARC
  5
710
330
1E
100
AcDbEntity
  8
3
 62
     4
100
AcDbCircle
 10
259.0
 20
398.4999999999999
 30
0.0
 40
8.0
100
AcDbArc
 50
90.0
 51
270.0
  0
LINE
  5
711
330
1E
100
AcDbEntity
  8
3
 62
     4
100
AcDbLine
 10
259.0
 20
361.5
 30
0.0
 11
283.0
 21
361.5
 31
0.0
  0
LINE
  5
712
330
1E
100
AcDbEntity
  8
3
 62
     4
100
AcDbLine
 10
259.0
 20
345.5
 30
0.0
 11
283.0
 21
345.5
 31
0.0
  0
ARC
  5
713
330
1E
100
AcDbEntity
  8
3
 62
     4
100
AcDbCircle
 10
283.0
 20
353.5
 30
0.0
 40
8.0
100
AcDbArc
 50
270.0
 51
90.0
  0
ARC
  5
714
330
1E
100
AcDbEntity
  8
3
 62
     4
100
AcDbCircle
 10
259.0
 20
353.5
 30
0.0
 40
8.0
100
AcDbArc
 50
90.0
 51
270.0
  0
LINE
  5
715
330
1E
100
AcDbEntity
  8
3
 62
     4
100
AcDbLine
 10
259.0
 20
306.4999999999999
 30
0.0
 11
283.0
 21
306.4999999999999
 31
0.0
  0
LINE
  5
716
330
1E
100
AcDbEntity
  8
3
 62
     4
100
AcDbLine
 10
259.0
 20
290.5
 30
0.0
 11
283.0
 21
290.5
 31
0.0
  0
ARC
  5
717
330
1E
100
AcDbEntity
  8
3
 62
     4
100
AcDbCircle
 10
283.0
 20
298.4999999999999
 30
0.0
 40
8.0
100
AcDbArc
 50
270.0
 51
90.0
  0
ARC
  5
718
330
1E
100
AcDbEntity
  8
3
 62
     4
100
AcDbCircle
 10
259.0
 20
298.4999999999999
 30
0.0
 40
8.0
100
AcDbArc
 50
90.0
 51
270.0
  0
LINE
  5
719
330
1E
100
AcDbEntity
  8
3
 62
     4
100
AcDbLine
 10
259.0
 20
224.5
 30
0.0
 11
283.0
 21
224.5
 31
0.0
  0
LINE
  5
71A
330
1E
100
AcDbEntity
  8
3
 62
     4
100
AcDbLine
 10
259.0
 20
208.4999999999999
 30
0.0
 11
283.0
 21
208.4999999999999
 31
0.0
  0
ARC
  5
71B
330
1E
100
AcDbEntity
  8
3
 62
     4
100
AcDbCircle
 10
283.0
 20
216.5
 30
0.0
 40
8.0
100
AcDbArc
 50
270.0
 51
90.0
  0
ARC
  5
71C
330
1E
100
AcDbEntity
  8
3
 62
     4
100
AcDbCircle
 10
259.0
 20
216.5
 30
0.0
 40
8.0
100
AcDbArc
 50
90.0
 51
270.0
  0
LINE
  5
71D
330
1E
100
AcDbEntity
  8
3
 62
     4
100
AcDbLine
 10
259.0
 20
186.5
 30
0.0
 11
283.0
 21
186.5
 31
0.0
  0
LINE
  5
71E
330
1E
100
AcDbEntity
  8
3
 62
     4
100
AcDbLine
 10
259.0
 20
170.5
 30
0.0
 11
283.0
 21
170.5
 31
0.0
  0
ARC
  5
71F
330
1E
100
AcDbEntity
  8
3
 62
     4
100
AcDbCircle
 10
283.0
 20
178.5
 30
0.0
 40
8.0
100
AcDbArc
 50
270.0
 51
90.0
  0
ARC
  5
720
330
1E
100
AcDbEntity
  8
3
 62
     4
100
AcDbCircle
 10
259.0
 20
178.5
 30
0.0
 40
8.0
100
AcDbArc
 50
90.0
 51
270.0
  0
CIRCLE
  5
721
330
1E
100
AcDbEntity
  8
3
 62
     4
100
AcDbCircle
 10
271.0
 20
476.0
 30
0.0
 40
8.0
  0
CIRCLE
  5
722
330
1E
100
AcDbEntity
  8
3
 62
     4
100
AcDbCircle
 10
320.0
 20
568.5
 30
0.0
 40
8.0
  0
CIRCLE
  5
725
330
1E
100
AcDbEntity
  8
3
 62
     4
100
AcDbCircle
 10
486.0
 20
568.5
 30
0.0
 40
8.0
  0
CIRCLE
  5
726
330
1E
100
AcDbEntity
  8
3
 62
     4
100
AcDbCircle
 10
586.0
 20
523.5
 30
0.0
 40
8.0
  0
LINE
  5
72F
330
1E
100
AcDbEntity
  8
3
 62
     4
100
AcDbLine
 10
259.0
 20
568.0
 30
0.0
 11
283.0
 21
568.0
 31
0.0
  0
LINE
  5
730
330
1E
100
AcDbEntity
  8
3
 62
     4
100
AcDbLine
 10
259.0
 20
552.0
 30
0.0
 11
283.0
 21
552.0
 31
0.0
  0
ARC
  5
731
330
1E
100
AcDbEntity
  8
3
 62
     4
100
AcDbCircle
 10
283.0
 20
560.0
 30
0.0
 40
8.0
100
AcDbArc
 50
270.0
 51
90.0
  0
ARC
  5
732
330
1E
100
AcDbEntity
  8
3
 62
     4
100
AcDbCircle
 10
259.0
 20
560.0
 30
0.0
 40
8.0
100
AcDbArc
 50
90.0
 51
270.0
  0
LINE
  5
733
330
1E
100
AcDbEntity
  8
3
 62
     4
100
AcDbLine
 10
259.0
 20
530.0
 30
0.0
 11
283.0
 21
530.0
 31
0.0
  0
LINE
  5
734
330
1E
100
AcDbEntity
  8
3
 62
     4
100
AcDbLine
 10
259.0
 20
514.0
 30
0.0
 11
283.0
 21
514.0
 31
0.0
  0
ARC
  5
735
330
1E
100
AcDbEntity
  8
3
 62
     4
100
AcDbCircle
 10
283.0
 20
522.0
 30
0.0
 40
8.0
100
AcDbArc
 50
270.0
 51
90.0
  0
ARC
  5
736
330
1E
100
AcDbEntity
  8
3
 62
     4
100
AcDbCircle
 10
259.0
 20
522.0
 30
0.0
 40
8.0
100
AcDbArc
 50
90.0
 51
270.0
  0
CIRCLE
  5
737
330
1E
100
AcDbEntity
  8
3
 62
     4
100
AcDbCircle
 10
486.0
 20
526.0
 30
0.0
 40
8.0
  0
LINE
  5
738
330
1E
100
AcDbEntity
  8
4
100
AcDbLine
 10
341.0
 20
248.4999999999999
 30
0.0
 11
436.0
 21
248.4999999999999
 31
0.0
  0
LINE
  5
739
330
1E
100
AcDbEntity
  8
4
100
AcDbLine
 10
329.4999999999999
 20
261.0
 30
0.0
 11
436.0
 21
261.0
 31
0.0
  0
LINE
  5
73A
330
1E
100
AcDbEntity
  8
4
100
AcDbLine
 10
329.4999999999999
 20
272.5
 30
0.0
 11
436.0
 21
272.5
 31
0.0
  0
LINE
  5
73B
330
1E
100
AcDbEntity
  8
4
100
AcDbLine
 10
329.4999999999999
 20
261.0
 30
0.0
 11
329.4999999999999
 21
272.5
 31
0.0
  0
LINE
  5
73C
330
1E
100
AcDbEntity
  8
4
100
AcDbLine
 10
341.0
 20
261.0
 30
0.0
 11
341.0
 21
248.4999999999999
 31
0.0
  0
LINE
  5
73D
330
1E
100
AcDbEntity
  8
4
100
AcDbLine
 10
413.75
 20
232.5
 30
0.0
 11
436.0
 21
232.5
 31
0.0
  0
LINE
  5
73E
330
1E
100
AcDbEntity
  8
4
100
AcDbLine
 10
413.75
 20
232.5
 30
0.0
 11
413.75
 21
240.9446129999999
 31
0.0
  0
LINE
  5
73F
330
1E
100
AcDbEntity
  8
4
100
AcDbLine
 10
413.75
 20
238.0
 30
0.0
 11
408.356614
 21
238.0
 31
0.0
  0
ARC
  5
740
330
1E
100
AcDbEntity
  8
4
100
AcDbCircle
 10
408.356614
 20
338.0
 30
0.0
 40
100.0
100
AcDbArc
 50
247.909778
 51
270.0
  0
LINE
  5
741
330
1E
100
AcDbEntity
  8
4
100
AcDbLine
 10
434.4999999999999
 20
272.5
 30
0.0
 11
434.4999999999999
 21
486.5
 31
0.0
  0
LINE
  5
742
330
1E
100
AcDbEntity
  8
4
100
AcDbLine
 10
367.5
 20
272.5
 30
0.0
 11
367.5
 21
486.5
 31
0.0
  0
LINE
  5
743
330
1E
100
AcDbEntity
  8
4
100
AcDbLine
 10
329.4999999999999
 20
497.5
 30
0.0
 11
436.0
 21
497.5
 31
0.0
  0
LINE
  5
744
330
1E
100
AcDbEntity
  8
4
100
AcDbLine
 10
329.4999999999999
 20
509.0
 30
0.0
 11
436.0
 21
509.0
 31
0.0
  0
LINE
  5
745
330
1E
100
AcDbEntity
  8
4
100
AcDbLine
 10
341.0
 20
521.0
 30
0.0
 11
436.0
 21
521.0
 31
0.0
  0
LINE
  5
746
330
1E
100
AcDbEntity
  8
4
100
AcDbLine
 10
329.4999999999999
 20
497.5
 30
0.0
 11
329.4999999999999
 21
509.0
 31
0.0
  0
LINE
  5
747
330
1E
100
AcDbEntity
  8
4
100
AcDbLine
 10
341.0
 20
509.0
 30
0.0
 11
341.0
 21
521.0
 31
0.0
  0
LINE
  5
748
330
1E
100
AcDbEntity
  8
4
100
AcDbLine
 10
366.0
 20
486.5
 30
0.0
 11
366.0
 21
497.5
 31
0.0
  0
LINE
  5
749
330
1E
100
AcDbEntity
  8
4
100
AcDbLine
 10
436.0
 20
497.5
 30
0.0
 11
436.0
 21
486.5
 31
0.0
  0
LINE
  5
74A
330
1E
100
AcDbEntity
  8
4
100
AcDbLine
 10
362.25
 20
272.5
 30
0.0
 11
362.25
 21
497.5
 31
0.0
  0
LINE
  5
74B
330
1E
100
AcDbEntity
  8
4
100
AcDbLine
 10
362.25
 20
528.0
 30
0.0
 11
362.25
 21
533.0
 31
0.0
  0
LINE
  5
74C
330
1E
100
AcDbEntity
  8
4
100
AcDbLine
 10
368.25
 20
528.0
 30
0.0
 11
368.25
 21
533.0
 31
0.0
  0
LINE
  5
74D
330
1E
100
AcDbEntity
  8
4
100
AcDbLine
 10
369.1875
 20
522.0
 30
0.0
 11
361.3125
 21
522.0
 31
0.0
  0
LINE
  5
74E
330
1E
100
AcDbEntity
  8
4
100
AcDbLine
 10
360.0
 20
522.5
 30
0.0
 11
360.0
 21
527.5
 31
0.0
  0
LINE
  5
74F
330
1E
100
AcDbEntity
  8
4
100
AcDbLine
 10
370.5
 20
522.5
 30
0.0
 11
370.5
 21
527.5
 31
0.0
  0
LINE
  5
750
330
1E
100
AcDbEntity
  8
4
100
AcDbLine
 10
369.1875
 20
528.0
 30
0.0
 11
361.3125
 21
528.0
 31
0.0
  0
LINE
  5
751
330
1E
100
AcDbEntity
  8
4
100
AcDbLine
 10
367.8749999999999
 20
527.5
 30
0.0
 11
367.8749999999999
 21
522.5
 31
0.0
  0
LINE
  5
752
330
1E
100
AcDbEntity
  8
4
100
AcDbLine
 10
362.625
 20
527.5
 30
0.0
 11
362.625
 21
522.5
 31
0.0
  0
ARC
  5
753
330
1E
100
AcDbEntity
  8
4
100
AcDbCircle
 10
369.1875
 20
526.027344
 30
0.0
 40
1.972656
100
AcDbArc
 50
48.291084
 51
131.7089159999999
  0
ARC
  5
754
330
1E
100
AcDbEntity
  8
4
100
AcDbCircle
 10
365.2499999999999
 20
520.859375
 30
0.0
 40
7.140625
100
AcDbArc
 50
68.431404
 51
111.5685959999999
  0
ARC
  5
755
330
1E
100
AcDbEntity
  8
4
100
AcDbCircle
 10
361.3125
 20
526.027344
 30
0.0
 40
1.972656
100
AcDbArc
 50
48.291084
 51
131.7089159999999
  0
ARC
  5
756
330
1E
100
AcDbEntity
  8
4
100
AcDbCircle
 10
369.1875
 20
523.9726559999999
 30
0.0
 40
1.972656
100
AcDbArc
 50
228.2910839999999
 51
311.7089159999999
  0
ARC
  5
757
330
1E
100
AcDbEntity
  8
4
100
AcDbCircle
 10
365.2499999999999
 20
529.140625
 30
0.0
 40
7.140625
100
AcDbArc
 50
248.431404
 51
291.568596
  0
ARC
  5
758
330
1E
100
AcDbEntity
  8
4
100
AcDbCircle
 10
361.3125
 20
523.9726559999999
 30
0.0
 40
1.972656
100
AcDbArc
 50
228.2910839999999
 51
311.7089159999999
  0
LINE
  5
759
330
1E
100
AcDbEntity
  8
4
100
AcDbLine
 10
370.5
 20
521.25
 30
0.0
 11
360.0
 21
521.25
 31
0.0
  0
LINE
  5
75A
330
1E
100
AcDbEntity
  8
4
100
AcDbLine
 10
370.5
 20
521.75
 30
0.0
 11
360.0
 21
521.75
 31
0.0
  0
LINE
  5
75B
330
1E
100
AcDbEntity
  8
4
100
AcDbLine
 10
360.0
 20
521.75
 30
0.0
 11
360.0
 21
521.25
 31
0.0
  0
LINE
  5
75C
330
1E
100
AcDbEntity
  8
4
100
AcDbLine
 10
370.5
 20
521.75
 30
0.0
 11
370.5
 21
521.25
 31
0.0
  0
LINE
  5
75D
330
1E
100
AcDbEntity
  8
4
100
AcDbLine
 10
368.25
 20
521.0
 30
0.0
 11
368.25
 21
521.25
 31
0.0
  0
LINE
  5
75E
330
1E
100
AcDbEntity
  8
4
100
AcDbLine
 10
368.25
 20
521.75
 30
0.0
 11
368.25
 21
522.0
 31
0.0
  0
LINE
  5
75F
330
1E
100
AcDbEntity
  8
4
100
AcDbLine
 10
362.25
 20
521.0
 30
0.0
 11
362.25
 21
521.25
 31
0.0
  0
LINE
  5
760
330
1E
100
AcDbEntity
  8
4
100
AcDbLine
 10
362.25
 20
521.75
 30
0.0
 11
362.25
 21
522.0
 31
0.0
  0
LINE
  5
761
330
1E
100
AcDbEntity
  8
4
100
AcDbLine
 10
368.25
 20
533.0
 30
0.0
 11
362.25
 21
533.0
 31
0.0
  0
LINE
  5
762
330
1E
100
AcDbEntity
  8
4
100
AcDbLine
 10
373.2499999999999
 20
247.5
 30
0.0
 11
357.25
 21
247.5
 31
0.0
  0
LINE
  5
763
330
1E
100
AcDbEntity
  8
4
100
AcDbLine
 10
357.25
 20
248.4999999999999
 30
0.0
 11
357.25
 21
247.5
 31
0.0
  0
LINE
  5
764
330
1E
100
AcDbEntity
  8
4
100
AcDbLine
 10
373.2499999999999
 20
248.4999999999999
 30
0.0
 11
373.2499999999999
 21
247.5
 31
0.0
  0
LINE
  5
765
330
1E
100
AcDbEntity
  8
4
100
AcDbLine
 10
373.2499999999999
 20
232.0
 30
0.0
 11
357.25
 21
232.0
 31
0.0
  0
LINE
  5
766
330
1E
100
AcDbEntity
  8
4
100
AcDbLine
 10
373.2499999999999
 20
231.0
 30
0.0
 11
357.25
 21
231.0
 31
0.0
  0
LINE
  5
767
330
1E
100
AcDbEntity
  8
4
100
AcDbLine
 10
373.2499999999999
 20
232.0
 30
0.0
 11
373.2499999999999
 21
231.0
 31
0.0
  0
LINE
  5
768
330
1E
100
AcDbEntity
  8
4
100
AcDbLine
 10
357.25
 20
232.0
 30
0.0
 11
357.25
 21
231.0
 31
0.0
  0
LINE
  5
769
330
1E
100
AcDbEntity
  8
4
100
AcDbLine
 10
359.75
 20
247.5
 30
0.0
 11
359.75
 21
232.0
 31
0.0
  0
LINE
  5
76A
330
1E
100
AcDbEntity
  8
4
100
AcDbLine
 10
370.75
 20
247.5
 30
0.0
 11
370.75
 21
232.0
 31
0.0
  0
LINE
  5
76B
330
1E
100
AcDbEntity
  8
4
100
AcDbLine
 10
369.75
 20
225.0
 30
0.0
 11
360.7499999999999
 21
225.0
 31
0.0
  0
LINE
  5
76C
330
1E
100
AcDbEntity
  8
4
100
AcDbLine
 10
359.25
 20
230.5
 30
0.0
 11
359.25
 21
225.4999999999999
 31
0.0
  0
LINE
  5
76D
330
1E
100
AcDbEntity
  8
4
100
AcDbLine
 10
371.2499999999999
 20
230.5
 30
0.0
 11
371.2499999999999
 21
225.4999999999999
 31
0.0
  0
LINE
  5
76E
330
1E
100
AcDbEntity
  8
4
100
AcDbLine
 10
362.25
 20
225.4999999999999
 30
0.0
 11
362.25
 21
230.5
 31
0.0
  0
LINE
  5
76F
330
1E
100
AcDbEntity
  8
4
100
AcDbLine
 10
368.25
 20
225.4999999999999
 30
0.0
 11
368.25
 21
230.5
 31
0.0
  0
ARC
  5
770
330
1E
100
AcDbEntity
  8
4
100
AcDbCircle
 10
360.7499999999999
 20
227.4999999999999
 30
0.0
 40
2.5
100
AcDbArc
 50
233.130102
 51
306.8698979999999
  0
ARC
  5
771
330
1E
100
AcDbEntity
  8
4
100
AcDbCircle
 10
365.2499999999999
 20
234.25
 30
0.0
 40
9.25
100
AcDbArc
 50
251.075356
 51
288.9246439999999
  0
ARC
  5
772
330
1E
100
AcDbEntity
  8
4
100
AcDbCircle
 10
369.75
 20
227.4999999999999
 30
0.0
 40
2.5
100
AcDbArc
 50
233.130102
 51
306.8698979999999
  0
ARC
  5
773
330
1E
100
AcDbEntity
  8
4
100
AcDbCircle
 10
360.7499999999999
 20
228.5
 30
0.0
 40
2.5
100
AcDbArc
 50
53.130102
 51
126.869898
  0
ARC
  5
774
330
1E
100
AcDbEntity
  8
4
100
AcDbCircle
 10
365.2499999999999
 20
221.75
 30
0.0
 40
9.25
100
AcDbArc
 50
71.075356
 51
108.9246439999999
  0
ARC
  5
775
330
1E
100
AcDbEntity
  8
4
100
AcDbCircle
 10
369.75
 20
228.5
 30
0.0
 40
2.5
100
AcDbArc
 50
53.130102
 51
126.869898
  0
LINE
  5
776
330
1E
100
AcDbEntity
  8
4
100
AcDbLine
 10
369.5
 20
223.0
 30
0.0
 11
361.0
 21
223.0
 31
0.0
  0
ARC
  5
777
330
1E
100
AcDbEntity
  8
4
100
AcDbCircle
 10
369.5
 20
224.0
 30
0.0
 40
1.0
100
AcDbArc
 50
270.0
 51
90.0
  0
ARC
  5
778
330
1E
100
AcDbEntity
  8
4
100
AcDbCircle
 10
361.0
 20
224.0
 30
0.0
 40
1.0
100
AcDbArc
 50
90.0
 51
270.0
  0
LINE
  5
779
330
1E
100
AcDbEntity
  8
4
100
AcDbLine
 10
331.0
 20
497.5
 30
0.0
 11
331.0
 21
486.5
 31
0.0
  0
LINE
  5
77A
330
1E
100
AcDbEntity
  8
4
100
AcDbLine
 10
332.5
 20
486.5
 30
0.0
 11
332.5
 21
272.5
 31
0.0
  0
LINE
  5
77B
330
1E
100
AcDbEntity
  8
4
100
AcDbLine
 10
331.0
 20
486.5
 30
0.0
 11
362.25
 21
486.5
 31
0.0
  0
LINE
  5
77C
330
1E
100
AcDbEntity
  8
4
100
AcDbLine
 10
366.0
 20
486.5
 30
0.0
 11
436.0
 21
486.5
 31
0.0
  0
ARC
  5
77D
330
1E
100
AcDbEntity
  8
4
 62
     3
100
AcDbCircle
 10
430.655342
 20
288.0
 30
0.0
 40
49.0
100
AcDbArc
 50
233.718796
 51
265.4286289999999
  0
ARC
  5
77E
330
1E
100
AcDbEntity
  8
4
100
AcDbCircle
 10
430.655342
 20
288.0
 30
0.0
 40
50.0
100
AcDbArc
 50
232.1855109999999
 51
265.4286289999999
  0
LINE
  5
77F
330
1E
100
AcDbEntity
  8
4
100
AcDbLine
 10
426.75
 20
238.241206
 30
0.0
 11
426.75
 21
248.4999999999999
 31
0.0
  0
LINE
  5
780
330
1E
100
AcDbEntity
  8
4
100
AcDbLine
 10
413.75
 20
537.0
 30
0.0
 11
436.0
 21
537.0
 31
0.0
  0
LINE
  5
781
330
1E
100
AcDbEntity
  8
4
100
AcDbLine
 10
413.75
 20
537.0
 30
0.0
 11
413.75
 21
528.555387
 31
0.0
  0
LINE
  5
782
330
1E
100
AcDbEntity
  8
4
100
AcDbLine
 10
413.75
 20
531.5
 30
0.0
 11
408.356614
 21
531.5
 31
0.0
  0
ARC
  5
783
330
1E
100
AcDbEntity
  8
4
100
AcDbCircle
 10
408.356614
 20
431.5
 30
0.0
 40
100.0
100
AcDbArc
 50
90.0
 51
112.090222
  0
ARC
  5
784
330
1E
100
AcDbEntity
  8
4
 62
     3
100
AcDbCircle
 10
430.655342
 20
481.5
 30
0.0
 40
49.0
100
AcDbArc
 50
94.571371
 51
126.281204
  0
ARC
  5
785
330
1E
100
AcDbEntity
  8
4
100
AcDbCircle
 10
430.655342
 20
481.5
 30
0.0
 40
50.0
100
AcDbArc
 50
94.571371
 51
127.814489
  0
LINE
  5
786
330
1E
100
AcDbEntity
  8
4
100
AcDbLine
 10
426.75
 20
531.2587940000001
 30
0.0
 11
426.75
 21
521.0
 31
0.0
  0
LINE
  5
787
330
1E
100
AcDbEntity
  8
4
100
AcDbLine
 10
365.013143
 20
232.0
 30
0.0
 11
360.206422
 21
232.420534
 31
0.0
  0
LINE
  5
788
330
1E
100
AcDbEntity
  8
4
 62
     3
100
AcDbLine
 10
370.2935779999999
 20
232.541842
 30
0.0
 11
360.2935779999999
 21
233.4167279999999
 31
0.0
  0
LINE
  5
789
330
1E
100
AcDbEntity
  8
4
 62
     3
100
AcDbLine
 10
370.206422
 20
233.051377
 30
0.0
 11
360.206422
 21
233.9262629999999
 31
0.0
  0
LINE
  5
78A
330
1E
100
AcDbEntity
  8
4
 62
     3
100
AcDbLine
 10
370.2935779999999
 20
234.047571
 30
0.0
 11
360.2935779999999
 21
234.922458
 31
0.0
  0
ARC
  5
78B
330
1E
100
AcDbEntity
  8
4
 62
     3
100
AcDbCircle
 10
370.25
 20
232.043744
 30
0.0
 40
0.5
100
AcDbArc
 50
354.980852
 51
85.0
  0
ARC
  5
78C
330
1E
100
AcDbEntity
  8
4
 62
     3
100
AcDbCircle
 10
360.25
 20
232.918631
 30
0.0
 40
0.5
100
AcDbArc
 50
85.0
 51
265.0
  0
ARC
  5
78D
330
1E
100
AcDbEntity
  8
4
 62
     3
100
AcDbCircle
 10
360.25
 20
234.4243609999999
 30
0.0
 40
0.5
100
AcDbArc
 50
85.0
 51
265.0
  0
ARC
  5
78E
330
1E
100
AcDbEntity
  8
4
 62
     3
100
AcDbCircle
 10
370.25
 20
233.549474
 30
0.0
 40
0.5
100
AcDbArc
 50
265.0
 51
85.0
  0
LINE
  5
78F
330
1E
100
AcDbEntity
  8
4
 62
     3
100
AcDbLine
 10
370.206422
 20
234.557106
 30
0.0
 11
360.206422
 21
235.4319929999999
 31
0.0
  0
LINE
  5
790
330
1E
100
AcDbEntity
  8
4
 62
     3
100
AcDbLine
 10
370.2935779999999
 20
235.5533009999999
 30
0.0
 11
360.2935779999999
 21
236.4281879999999
 31
0.0
  0
ARC
  5
791
330
1E
100
AcDbEntity
  8
4
 62
     3
100
AcDbCircle
 10
360.25
 20
235.93009
 30
0.0
 40
0.5
100
AcDbArc
 50
85.0
 51
265.0
  0
ARC
  5
792
330
1E
100
AcDbEntity
  8
4
 62
     3
100
AcDbCircle
 10
370.25
 20
235.055204
 30
0.0
 40
0.5
100
AcDbArc
 50
265.0
 51
85.0
  0
LINE
  5
793
330
1E
100
AcDbEntity
  8
4
 62
     3
100
AcDbLine
 10
370.206422
 20
236.0628359999999
 30
0.0
 11
360.206422
 21
236.937723
 31
0.0
  0
LINE
  5
794
330
1E
100
AcDbEntity
  8
4
 62
     3
100
AcDbLine
 10
370.2935779999999
 20
237.059031
 30
0.0
 11
360.2935779999999
 21
237.933918
 31
0.0
  0
ARC
  5
795
330
1E
100
AcDbEntity
  8
4
 62
     3
100
AcDbCircle
 10
360.25
 20
237.43582
 30
0.0
 40
0.5
100
AcDbArc
 50
85.0
 51
265.0
  0
ARC
  5
796
330
1E
100
AcDbEntity
  8
4
 62
     3
100
AcDbCircle
 10
370.25
 20
236.5609339999999
 30
0.0
 40
0.5
100
AcDbArc
 50
265.0
 51
85.0
  0
LINE
  5
797
330
1E
100
AcDbEntity
  8
4
 62
     3
100
AcDbLine
 10
370.206422
 20
237.568566
 30
0.0
 11
360.206422
 21
238.4434529999999
 31
0.0
  0
LINE
  5
798
330
1E
100
AcDbEntity
  8
4
 62
     3
100
AcDbLine
 10
370.2935779999999
 20
238.5647609999999
 30
0.0
 11
360.2935779999999
 21
239.439647
 31
0.0
  0
ARC
  5
799
330
1E
100
AcDbEntity
  8
4
 62
     3
100
AcDbCircle
 10
360.25
 20
238.94155
 30
0.0
 40
0.5
100
AcDbArc
 50
85.0
 51
265.0
  0
ARC
  5
79A
330
1E
100
AcDbEntity
  8
4
 62
     3
100
AcDbCircle
 10
370.25
 20
238.0666629999999
 30
0.0
 40
0.5
100
AcDbArc
 50
265.0
 51
85.0
  0
LINE
  5
79B
330
1E
100
AcDbEntity
  8
4
 62
     3
100
AcDbLine
 10
370.206422
 20
239.074296
 30
0.0
 11
360.206422
 21
239.9491819999999
 31
0.0
  0
LINE
  5
79C
330
1E
100
AcDbEntity
  8
4
 62
     3
100
AcDbLine
 10
370.2935779999999
 20
240.07049
 30
0.0
 11
360.2935779999999
 21
240.945377
 31
0.0
  0
ARC
  5
79D
330
1E
100
AcDbEntity
  8
4
 62
     3
100
AcDbCircle
 10
360.25
 20
240.4472799999999
 30
0.0
 40
0.5
100
AcDbArc
 50
85.0
 51
265.0
  0
ARC
  5
79E
330
1E
100
AcDbEntity
  8
4
 62
     3
100
AcDbCircle
 10
370.25
 20
239.5723929999999
 30
0.0
 40
0.5
100
AcDbArc
 50
265.0
 51
85.0
  0
LINE
  5
79F
330
1E
100
AcDbEntity
  8
4
 62
     3
100
AcDbLine
 10
370.206422
 20
240.5800259999999
 30
0.0
 11
360.206422
 21
241.454912
 31
0.0
  0
LINE
  5
7A0
330
1E
100
AcDbEntity
  8
4
 62
     3
100
AcDbLine
 10
370.2935779999999
 20
241.57622
 30
0.0
 11
360.2935779999999
 21
242.4511069999999
 31
0.0
  0
ARC
  5
7A1
330
1E
100
AcDbEntity
  8
4
 62
     3
100
AcDbCircle
 10
360.25
 20
241.95301
 30
0.0
 40
0.5
100
AcDbArc
 50
85.0
 51
265.0
  0
ARC
  5
7A2
330
1E
100
AcDbEntity
  8
4
 62
     3
100
AcDbCircle
 10
370.25
 20
241.0781229999999
 30
0.0
 40
0.5
100
AcDbArc
 50
265.0
 51
85.0
  0
LINE
  5
7A3
330
1E
100
AcDbEntity
  8
4
 62
     3
100
AcDbLine
 10
370.206422
 20
242.085755
 30
0.0
 11
360.206422
 21
242.9606419999999
 31
0.0
  0
LINE
  5
7A4
330
1E
100
AcDbEntity
  8
4
 62
     3
100
AcDbLine
 10
370.2935779999999
 20
243.08195
 30
0.0
 11
360.2935779999999
 21
243.9568369999999
 31
0.0
  0
ARC
  5
7A5
330
1E
100
AcDbEntity
  8
4
 62
     3
100
AcDbCircle
 10
360.25
 20
243.458739
 30
0.0
 40
0.5
100
AcDbArc
 50
85.0
 51
265.0
  0
ARC
  5
7A6
330
1E
100
AcDbEntity
  8
4
 62
     3
100
AcDbCircle
 10
370.25
 20
242.5838529999999
 30
0.0
 40
0.5
100
AcDbArc
 50
265.0
 51
85.0
  0
LINE
  5
7A7
330
1E
100
AcDbEntity
  8
4
 62
     3
100
AcDbLine
 10
370.206422
 20
243.591485
 30
0.0
 11
360.206422
 21
244.466372
 31
0.0
  0
LINE
  5
7A8
330
1E
100
AcDbEntity
  8
4
 62
     3
100
AcDbLine
 10
370.2935779999999
 20
244.5876799999999
 30
0.0
 11
360.2935779999999
 21
245.462566
 31
0.0
  0
ARC
  5
7A9
330
1E
100
AcDbEntity
  8
4
 62
     3
100
AcDbCircle
 10
360.25
 20
244.9644689999999
 30
0.0
 40
0.5
100
AcDbArc
 50
85.0
 51
265.0
  0
ARC
  5
7AA
330
1E
100
AcDbEntity
  8
4
 62
     3
100
AcDbCircle
 10
370.25
 20
244.0895819999999
 30
0.0
 40
0.5
100
AcDbArc
 50
265.0
 51
85.0
  0
LINE
  5
7AB
330
1E
100
AcDbEntity
  8
4
 62
     3
100
AcDbLine
 10
370.206422
 20
245.0972149999999
 30
0.0
 11
360.206422
 21
245.9721009999999
 31
0.0
  0
LINE
  5
7AC
330
1E
100
AcDbEntity
  8
4
 62
     3
100
AcDbLine
 10
370.2935779999999
 20
246.0934089999999
 30
0.0
 11
360.2935779999999
 21
246.968296
 31
0.0
  0
ARC
  5
7AD
330
1E
100
AcDbEntity
  8
4
 62
     3
100
AcDbCircle
 10
360.25
 20
246.470199
 30
0.0
 40
0.5
100
AcDbArc
 50
85.0
 51
265.0
  0
ARC
  5
7AE
330
1E
100
AcDbEntity
  8
4
 62
     3
100
AcDbCircle
 10
370.25
 20
245.595312
 30
0.0
 40
0.5
100
AcDbArc
 50
265.0
 51
85.0
  0
LINE
  5
7AF
330
1E
100
AcDbEntity
  8
4
 62
     3
100
AcDbLine
 10
370.206422
 20
246.602945
 30
0.0
 11
360.206422
 21
247.477831
 31
0.0
  0
ARC
  5
7B0
330
1E
100
AcDbEntity
  8
4
 62
     3
100
AcDbCircle
 10
370.25
 20
247.101042
 30
0.0
 40
0.5
100
AcDbArc
 50
265.0
 51
52.93157299999999
  0
LINE
  5
7B1
330
1E
100
AcDbEntity
  8
11
100
AcDbLine
 10
747.0
 20
45.49999999999999
 30
0.0
 11
1204.0
 21
45.49999999999999
 31
0.0
  0
LINE
  5
7B2
330
1E
100
AcDbEntity
  8
11
100
AcDbLine
 10
1204.0
 20
150.5
 30
0.0
 11
1204.0
 21
45.49999999999999
 31
0.0
  0
LINE
  5
7B3
330
1E
100
AcDbEntity
  8
11
100
AcDbLine
 10
747.0
 20
80.5
 30
0.0
 11
1204.0
 21
80.5
 31
0.0
  0
LINE
  5
7B4
330
1E
100
AcDbEntity
  8
11
100
AcDbLine
 10
747.0
 20
115.5
 30
0.0
 11
1204.0
 21
115.5
 31
0.0
  0
LINE
  5
7B5
330
1E
100
AcDbEntity
  8
11
100
AcDbLine
 10
747.0
 20
150.5
 30
0.0
 11
1204.0
 21
150.5
 31
0.0
  0
LINE
  5
7B6
330
1E
100
AcDbEntity
  8
11
100
AcDbLine
 10
907.0
 20
150.5
 30
0.0
 11
907.0
 21
45.49999999999999
 31
0.0
  0
LINE
  5
7B7
330
1E
100
AcDbEntity
  8
11
100
AcDbLine
 10
747.0
 20
150.5
 30
0.0
 11
747.0
 21
45.49999999999999
 31
0.0
  0
LINE
  5
7B8
330
1E
100
AcDbEntity
  8
11
100
AcDbLine
 10
875.0
 20
80.5
 30
0.0
 11
875.0
 21
45.49999999999999
 31
0.0
  0
LINE
  5
7B9
330
1E
100
AcDbEntity
  8
11
100
AcDbLine
 10
843.0
 20
80.5
 30
0.0
 11
843.0
 21
45.49999999999999
 31
0.0
  0
LINE
  5
7BA
330
1E
100
AcDbEntity
  8
11
100
AcDbLine
 10
811.0
 20
80.5
 30
0.0
 11
811.0
 21
45.49999999999999
 31
0.0
  0
LINE
  5
7BB
330
1E
100
AcDbEntity
  8
11
100
AcDbLine
 10
779.0
 20
80.5
 30
0.0
 11
779.0
 21
45.49999999999999
 31
0.0
  0
TEXT
  5
7BD
330
1E
100
AcDbEntity
  8
11
100
AcDbText
 10
912.0
 20
103.0
 30
0.0
 40
8.0
  1
品　番
100
AcDbText
  0
TEXT
  5
7BE
330
1E
100
AcDbEntity
  8
11
100
AcDbText
 10
912.0
 20
138.0
 30
0.0
 40
8.0
  1
品　名
100
AcDbText
  0
LINE
  5
7C2
330
1E
100
AcDbEntity
  8
25
100
AcDbLine
 10
36.0
 20
25.5
 30
0.0
 11
1224.0
 21
25.5
 31
0.0
  0
LINE
  5
7C3
330
1E
100
AcDbEntity
  8
25
 62
     3
100
AcDbLine
 10
0.0
 20
0.0
 30
0.0
 11
10.0
 21
0.0
 31
0.0
  0
LINE
  5
7C4
330
1E
100
AcDbEntity
  8
25
 62
     3
100
AcDbLine
 10
1250.0
 20
0.0
 30
0.0
 11
1260.0
 21
0.0
 31
0.0
  0
LINE
  5
7C5
330
1E
100
AcDbEntity
  8
25
 62
     3
100
AcDbLine
 10
1260.0
 20
891.0
 30
0.0
 11
1260.0
 21
881.0
 31
0.0
  0
LINE
  5
7C6
330
1E
100
AcDbEntity
  8
25
 62
     3
100
AcDbLine
 10
1260.0
 20
10.0
 30
0.0
 11
1260.0
 21
0.0
 31
0.0
  0
LINE
  5
7C7
330
1E
100
AcDbEntity
  8
25
 62
     3
100
AcDbLine
 10
0.0
 20
891.0
 30
0.0
 11
0.0
 21
881.0
 31
0.0
  0
LINE
  5
7C8
330
1E
100
AcDbEntity
  8
25
 62
     3
100
AcDbLine
 10
0.0
 20
10.0
 30
0.0
 11
0.0
 21
0.0
 31
0.0
  0
LINE
  5
7C9
330
1E
100
AcDbEntity
  8
25
 62
     3
100
AcDbLine
 10
0.0
 20
891.0
 30
0.0
 11
10.0
 21
891.0
 31
0.0
  0
LINE
  5
7CA
330
1E
100
AcDbEntity
  8
25
 62
     3
100
AcDbLine
 10
1250.0
 20
891.0
 30
0.0
 11
1260.0
 21
891.0
 31
0.0
  0
LINE
  5
7CB
330
1E
100
AcDbEntity
  8
25
100
AcDbLine
 10
36.0
 20
865.4999999999999
 30
0.0
 11
1224.0
 21
865.4999999999999
 31
0.0
  0
LINE
  5
7CC
330
1E
100
AcDbEntity
  8
25
100
AcDbLine
 10
36.0
 20
865.4999999999999
 30
0.0
 11
36.0
 21
25.5
 31
0.0
  0
LINE
  5
7CD
330
1E
100
AcDbEntity
  8
25
100
AcDbLine
 10
1224.0
 20
25.5
 30
0.0
 11
1224.0
 21
865.4999999999999
 31
0.0
  0
LINE
  5
7CE
330
1E
100
AcDbEntity
  8
29
 62
     3
100
AcDbLine
 10
489.25
 20
133.5734073669841
 30
0.0
 11
482.488519
 21
135.3851403669841
 31
0.0
  0
LINE
  5
7CF
330
1E
100
AcDbEntity
  8
29
 62
     3
100
AcDbLine
 10
329.4999999999999
 20
133.5734073669841
 30
0.0
 11
336.261481
 21
131.7616743669841
 31
0.0
  0
LINE
  5
7D0
330
1E
100
AcDbEntity
  8
29
 62
     3
100
AcDbLine
 10
329.4999999999999
 20
133.5734073669841
 30
0.0
 11
336.261481
 21
135.3851403669841
 31
0.0
  0
LINE
  5
7D1
330
1E
100
AcDbEntity
  8
29
 62
     3
100
AcDbLine
 10
562.0
 20
160.4999999999999
 30
0.0
 11
643.0
 21
160.4999999999999
 31
0.0
  0
LINE
  5
7D2
330
1E
100
AcDbEntity
  8
29
 62
     3
100
AcDbLine
 10
641.0
 20
160.4999999999999
 30
0.0
 11
641.0
 21
579.4999999999999
 31
0.0
  0
LINE
  5
7D3
330
1E
100
AcDbEntity
  8
29
 62
     3
100
AcDbLine
 10
465.0
 20
579.4999999999999
 30
0.0
 11
643.0
 21
579.4999999999999
 31
0.0
  0
TEXT
  5
7D4
330
1E
100
AcDbEntity
  8
29
100
AcDbText
 10
639.4
 20
358.66
 30
0.0
 40
8.4
  1
４１９
 50
90.0
 41
0.9
100
AcDbText
  0
LINE
  5
7D5
330
1E
100
AcDbEntity
  8
29
 62
     3
100
AcDbLine
 10
551.0
 20
180.4999999999999
 30
0.0
 11
623.0
 21
180.4999999999999
 31
0.0
  0
LINE
  5
7D6
330
1E
100
AcDbEntity
  8
29
 62
     3
100
AcDbLine
 10
621.0
 20
180.4999999999999
 30
0.0
 11
621.0
 21
553.5
 31
0.0
  0
LINE
  5
7D7
330
1E
100
AcDbEntity
  8
29
 62
     3
100
AcDbLine
 10
494.0
 20
553.5
 30
0.0
 11
623.0
 21
553.5
 31
0.0
  0
TEXT
  5
7D8
330
1E
100
AcDbEntity
  8
29
100
AcDbText
 10
619.3999999999999
 20
355.66
 30
0.0
 40
8.4
  1
３７３
 50
90.0
 41
0.9
100
AcDbText
  0
LINE
  5
7D9
330
1E
100
AcDbEntity
  8
29
 62
     3
100
AcDbLine
 10
329.4999999999999
 20
256.0
 30
0.0
 11
329.4999999999999
 21
131.5734073669841
 31
0.0
  0
LINE
  5
7DA
330
1E
100
AcDbEntity
  8
29
 62
     3
100
AcDbLine
 10
329.4999999999999
 20
133.5734073669841
 30
0.0
 11
489.25
 21
133.5734073669841
 31
0.0
  0
TEXT
  5
7DB
330
1E
100
AcDbEntity
  8
29
100
AcDbText
 10
420.88
 20
135.1734073669841
 30
0.0
 40
8.4
  1
φ２１３
 41
0.9
100
AcDbText
  0
LINE
  5
7DC
330
1E
100
AcDbEntity
  8
29
 62
     3
100
AcDbLine
 10
326.0
 20
175.5
 30
0.0
 11
326.0
 21
111.5734073669841
 31
0.0
  0
LINE
  5
7DD
330
1E
100
AcDbEntity
  8
29
 62
     3
100
AcDbLine
 10
326.0
 20
113.5734073669841
 30
0.0
 11
546.0
 21
113.5734073669841
 31
0.0
  0
LINE
  5
7DE
330
1E
100
AcDbEntity
  8
29
 62
     3
100
AcDbLine
 10
546.0
 20
175.5
 30
0.0
 11
546.0
 21
111.5734073669841
 31
0.0
  0
TEXT
  5
7DF
330
1E
100
AcDbEntity
  8
29
100
AcDbText
 10
420.88
 20
115.1734073669841
 30
0.0
 40
8.4
  1
φ２２０
 41
0.9
100
AcDbText
  0
LINE
  5
7E0
330
1E
100
AcDbEntity
  8
29
 62
     3
100
AcDbLine
 10
311.0
 20
422.4999999999999
 30
0.0
 11
311.0
 21
91.57340736698415
 31
0.0
  0
LINE
  5
7E1
330
1E
100
AcDbEntity
  8
29
 62
     3
100
AcDbLine
 10
311.0
 20
93.57340736698416
 30
0.0
 11
561.0
 21
93.57340736698416
 31
0.0
  0
LINE
  5
7E2
330
1E
100
AcDbEntity
  8
29
 62
     3
100
AcDbLine
 10
561.0
 20
422.4999999999999
 30
0.0
 11
561.0
 21
91.57340736698415
 31
0.0
  0
TEXT
  5
7E3
330
1E
100
AcDbEntity
  8
29
100
AcDbText
 10
420.88
 20
95.17340736698418
 30
0.0
 40
8.4
  1
φ２５０
 41
0.9
100
AcDbText
  0
TEXT
  5
7E4
330
1E
100
AcDbEntity
  8
29
100
AcDbText
 10
599.3999999999999
 20
373.41
 30
0.0
 40
8.4
  1
３０３
 50
90.0
 41
0.9
100
AcDbText
  0
LINE
  5
7E5
330
1E
100
AcDbEntity
  8
29
 62
     3
100
AcDbLine
 10
546.0
 20
113.5734073669841
 30
0.0
 11
539.2385189999999
 21
111.7616743669841
 31
0.0
  0
LINE
  5
7E6
330
1E
100
AcDbEntity
  8
29
 62
     3
100
AcDbLine
 10
546.0
 20
113.5734073669841
 30
0.0
 11
539.2385189999999
 21
115.3851403669841
 31
0.0
  0
LINE
  5
7E7
330
1E
100
AcDbEntity
  8
29
 62
     3
100
AcDbLine
 10
561.0
 20
93.57340736698416
 30
0.0
 11
554.238519
 21
95.38514036698416
 31
0.0
  0
LINE
  5
7E8
330
1E
100
AcDbEntity
  8
29
 62
     3
100
AcDbLine
 10
561.0
 20
93.57340736698416
 30
0.0
 11
554.238519
 21
91.76167436698415
 31
0.0
  0
LINE
  5
7E9
330
1E
100
AcDbEntity
  8
29
 62
     3
100
AcDbLine
 10
326.0
 20
113.5734073669841
 30
0.0
 11
332.761481
 21
115.3851403669841
 31
0.0
  0
LINE
  5
7EA
330
1E
100
AcDbEntity
  8
29
 62
     3
100
AcDbLine
 10
326.0
 20
113.5734073669841
 30
0.0
 11
332.761481
 21
111.7616743669841
 31
0.0
  0
LINE
  5
7EB
330
1E
100
AcDbEntity
  8
29
 62
     3
100
AcDbLine
 10
311.0
 20
93.57340736698416
 30
0.0
 11
317.761481
 21
95.38514036698416
 31
0.0
  0
LINE
  5
7EC
330
1E
100
AcDbEntity
  8
29
 62
     3
100
AcDbLine
 10
311.0
 20
93.57340736698416
 30
0.0
 11
317.761481
 21
91.76167436698415
 31
0.0
  0
LINE
  5
7ED
330
1E
100
AcDbEntity
  8
29
 62
     3
100
AcDbLine
 10
641.0
 20
160.4999999999999
 30
0.0
 11
639.188267
 21
167.2614809999999
 31
0.0
  0
LINE
  5
7EE
330
1E
100
AcDbEntity
  8
29
 62
     3
100
AcDbLine
 10
641.0
 20
160.4999999999999
 30
0.0
 11
642.811733
 21
167.2614809999999
 31
0.0
  0
LINE
  5
7EF
330
1E
100
AcDbEntity
  8
29
 62
     3
100
AcDbLine
 10
621.0
 20
180.4999999999999
 30
0.0
 11
619.188267
 21
187.2614809999999
 31
0.0
  0
LINE
  5
7F0
330
1E
100
AcDbEntity
  8
29
 62
     3
100
AcDbLine
 10
621.0
 20
180.4999999999999
 30
0.0
 11
622.8117329999999
 21
187.2614809999999
 31
0.0
  0
LINE
  5
7F1
330
1E
100
AcDbEntity
  8
29
 62
     3
100
AcDbLine
 10
441.0
 20
232.5
 30
0.0
 11
603.0
 21
232.5
 31
0.0
  0
LINE
  5
7F2
330
1E
100
AcDbEntity
  8
29
 62
     3
100
AcDbLine
 10
441.0
 20
537.0
 30
0.0
 11
603.0
 21
537.0
 31
0.0
  0
LINE
  5
7F3
330
1E
100
AcDbEntity
  8
29
 62
     3
100
AcDbLine
 10
601.0
 20
232.5
 30
0.0
 11
599.1882669999999
 21
239.2614809999999
 31
0.0
  0
LINE
  5
7F4
330
1E
100
AcDbEntity
  8
29
 62
     3
100
AcDbLine
 10
601.0
 20
232.5
 30
0.0
 11
602.811733
 21
239.2614809999999
 31
0.0
  0
LINE
  5
7F5
330
1E
100
AcDbEntity
  8
29
 62
     3
100
AcDbLine
 10
601.0
 20
232.5
 30
0.0
 11
601.0
 21
537.0
 31
0.0
  0
LINE
  5
7F6
330
1E
100
AcDbEntity
  8
29
 62
     3
100
AcDbLine
 10
601.0
 20
537.0
 30
0.0
 11
599.1882669999999
 21
530.2385189999999
 31
0.0
  0
LINE
  5
7F7
330
1E
100
AcDbEntity
  8
29
 62
     3
100
AcDbLine
 10
601.0
 20
537.0
 30
0.0
 11
602.811733
 21
530.2385189999999
 31
0.0
  0
LINE
  5
7F8
330
1E
100
AcDbEntity
  8
29
 62
     3
100
AcDbLine
 10
621.0
 20
553.5
 30
0.0
 11
619.188267
 21
546.7385189999999
 31
0.0
  0
LINE
  5
7F9
330
1E
100
AcDbEntity
  8
29
 62
     3
100
AcDbLine
 10
621.0
 20
553.5
 30
0.0
 11
622.8117329999999
 21
546.7385189999999
 31
0.0
  0
LINE
  5
7FA
330
1E
100
AcDbEntity
  8
29
 62
     3
100
AcDbLine
 10
641.0
 20
579.4999999999999
 30
0.0
 11
639.188267
 21
572.7385189999999
 31
0.0
  0
LINE
  5
7FB
330
1E
100
AcDbEntity
  8
29
 62
     3
100
AcDbLine
 10
641.0
 20
579.4999999999999
 30
0.0
 11
642.811733
 21
572.7385189999999
 31
0.0
  0
LINE
  5
7FC
330
1E
100
AcDbEntity
  8
29
 62
     3
100
AcDbLine
 10
482.488519
 20
135.3851403669841
 30
0.0
 11
481.7120619999999
 21
132.4873633669841
 31
0.0
  0
LINE
  5
7FD
330
1E
100
AcDbEntity
  8
29
 62
     3
100
AcDbLine
 10
479.25
 20
133.5734073669841
 30
0.0
 11
472.4885190000001
 21
135.3851403669841
 31
0.0
  0
LINE
  5
7FE
330
1E
100
AcDbEntity
  8
29
 62
     3
100
AcDbLine
 10
472.4885190000001
 20
135.3851403669841
 30
0.0
 11
471.712062
 21
132.4873633669841
 31
0.0
  0
TEXT
  5
7FF
330
1E
100
AcDbEntity
  8
29
100
AcDbText
 10
423.2108367703473
 20
749.5329308825181
 30
0.0
 40
8.0
  1
ホース長：３００ｍｍ
 41
0.9
100
AcDbText
  0
TEXT
  5
875
330
1E
100
AcDbEntity
  8
2
100
AcDbText
 10
896.0
 20
833.5
 30
0.0
 40
7.0
  1
品　名
100
AcDbText
  0
LINE
  5
881
330
1E
100
AcDbEntity
  8
2
 62
     3
100
AcDbLine
 10
1204.0
 20
717.4999999999999
 30
0.0
 11
834.0
 21
717.4999999999999
 31
0.0
  0
LINE
  5
882
330
1E
100
AcDbEntity
  8
2
 62
     3
100
AcDbLine
 10
1204.0
 20
701.5
 30
0.0
 11
834.0
 21
701.5
 31
0.0
  0
LINE
  5
883
330
1E
100
AcDbEntity
  8
2
 62
     3
100
AcDbLine
 10
1204.0
 20
685.5
 30
0.0
 11
834.0
 21
685.5
 31
0.0
  0
LINE
  5
884
330
1E
100
AcDbEntity
  8
2
 62
     3
100
AcDbLine
 10
1204.0
 20
669.5
 30
0.0
 11
834.0
 21
669.5
 31
0.0
  0
LINE
  5
885
330
1E
100
AcDbEntity
  8
2
 62
     3
100
AcDbLine
 10
1204.0
 20
653.5
 30
0.0
 11
834.0
 21
653.5
 31
0.0
  0
LINE
  5
88A
330
1E
100
AcDbEntity
  8
2
100
AcDbLine
 10
1204.0
 20
845.5
 30
0.0
 11
834.0
 21
845.5
 31
0.0
  0
LINE
  5
88B
330
1E
100
AcDbEntity
  8
2
100
AcDbLine
 10
1204.0
 20
829.4999999999999
 30
0.0
 11
834.0
 21
829.4999999999999
 31
0.0
  0
LINE
  5
88C
330
1E
100
AcDbEntity
  8
2
 62
     3
100
AcDbLine
 10
1204.0
 20
813.4999999999999
 30
0.0
 11
834.0
 21
813.4999999999999
 31
0.0
  0
LINE
  5
88D
330
1E
100
AcDbEntity
  8
2
 62
     3
100
AcDbLine
 10
1204.0
 20
797.5
 30
0.0
 11
834.0
 21
797.5
 31
0.0
  0
LINE
  5
88E
330
1E
100
AcDbEntity
  8
2
 62
     3
100
AcDbLine
 10
1204.0
 20
781.5
 30
0.0
 11
834.0
 21
781.5
 31
0.0
  0
LINE
  5
88F
330
1E
100
AcDbEntity
  8
2
 62
     3
100
AcDbLine
 10
1204.0
 20
765.5
 30
0.0
 11
834.0
 21
765.5
 31
0.0
  0
LINE
  5
890
330
1E
100
AcDbEntity
  8
2
 62
     3
100
AcDbLine
 10
1204.0
 20
749.5
 30
0.0
 11
834.0
 21
749.5
 31
0.0
  0
LINE
  5
891
330
1E
100
AcDbEntity
  8
2
 62
     3
100
AcDbLine
 10
1204.0
 20
733.4999999999999
 30
0.0
 11
834.0
 21
733.4999999999999
 31
0.0
  0
LINE
  5
894
330
1E
100
AcDbEntity
  8
2
 62
     3
100
AcDbLine
 10
889.0
 20
845.5
 30
0.0
 11
889.0
 21
637.5
 31
0.0
  0
LINE
  5
895
330
1E
100
AcDbEntity
  8
2
100
AcDbLine
 10
834.0
 20
845.5
 30
0.0
 11
834.0
 21
637.5
 31
0.0
  0
TEXT
  5
8A0
330
1E
100
AcDbEntity
  8
2
100
AcDbText
 10
849.8333333333333
 20
834.0
 30
0.0
 40
7.0
  1
品　番
 72
     1
 11
861.5
 21
837.5
 31
0.0
100
AcDbText
 73
     2
  0
LINE
  5
8A4
330
1E
100
AcDbEntity
  8
2
 62
     3
100
AcDbLine
 10
1074.0
 20
845.5
 30
0.0
 11
1074.0
 21
637.5
 31
0.0
  0
LINE
  5
8A5
330
1E
100
AcDbEntity
  8
2
100
AcDbLine
 10
1019.0
 20
845.5
 30
0.0
 11
1019.0
 21
637.5
 31
0.0
  0
LINE
  5
8A6
330
1E
100
AcDbEntity
  8
2
100
AcDbLine
 10
1204.0
 20
845.5
 30
0.0
 11
1204.0
 21
637.5
 31
0.0
  0
TEXT
  5
8BC
330
1E
100
AcDbEntity
  8
2
100
AcDbText
 10
1081.0
 20
833.5
 30
0.0
 40
7.0
  1
品　名
100
AcDbText
  0
TEXT
  5
8BE
330
1E
100
AcDbEntity
  8
2
100
AcDbText
 10
1034.833333333333
 20
834.0
 30
0.0
 40
7.0
  1
品　番
 72
     1
 11
1046.499999999999
 21
837.5
 31
0.0
100
AcDbText
 73
     2
  0
TEXT
  5
8F8
330
1E
100
AcDbEntity
  8
11
100
AcDbText
 10
994.4044943820225
 20
122.2020037503027
 30
0.0
 40
15.0
  1
浄水器　Ⅰ型
  7
ｽﾀｲﾙ1
 72
     1
 11
1055.5
 21
129.7020037503027
 31
0.0
100
AcDbText
 73
     2
  0
TEXT
  5
8F9
330
1E
100
AcDbEntity
  8
11
100
AcDbText
 10
939.349881875221
 20
87.20200375030277
 30
0.0
 40
15.0
  1
シーガルフォー　スパークエルピュア
 41
0.8
  7
ｽﾀｲﾙ1
 72
     1
 11
1069.799320077468
 21
94.70200375030277
 31
0.0
100
AcDbText
 73
     2
  0
TEXT
  5
8FB
330
1E
100
AcDbEntity
  8
11
100
AcDbText
 10
768.6666666666666
 20
93.0
 30
0.0
 40
10.0
  1
Ａ３　　縮尺　１／３
 72
     1
 11
827.0
 21
98.0
 31
0.0
100
AcDbText
 73
     2
  0
TEXT
  5
DCD
330
1E
100
AcDbEntity
  8
2
100
AcDbText
 10
841.3666666666667
 20
722.0
 30
0.0
 40
7.0
  1
　　7
 72
     1
 11
861.5
 21
725.4999999999999
 31
0.0
100
AcDbText
 73
     2
  0
TEXT
  5
DD1
330
1E
100
AcDbEntity
  8
2
100
AcDbText
 10
841.3666666666667
 20
706.0
 30
0.0
 40
7.0
  1
　　8
 72
     1
 11
861.5
 21
709.4999999999999
 31
0.0
100
AcDbText
 73
     2
  0
TEXT
  5
DD2
330
1E
100
AcDbEntity
  8
2
100
AcDbText
 10
841.5333333333332
 20
690.0
 30
0.0
 40
7.0
  1
　　9
 72
     1
 11
861.5
 21
693.5
 31
0.0
100
AcDbText
 73
     2
  0
TEXT
  5
DD3
330
1E
100
AcDbEntity
  8
2
100
AcDbText
 10
841.3666666666667
 20
754.0
 30
0.0
 40
7.0
  1
　　5
 72
     1
 11
861.5
 21
757.5
 31
0.0
100
AcDbText
 73
     2
  0
TEXT
  5
DD4
330
1E
100
AcDbEntity
  8
2
100
AcDbText
 10
841.2
 20
738.0
 30
0.0
 40
7.0
  1
　　6
 72
     1
 11
861.5
 21
741.5
 31
0.0
100
AcDbText
 73
     2
  0
TEXT
  5
DD5
330
1E
100
AcDbEntity
  8
2
100
AcDbText
 10
841.2
 20
770.0
 30
0.0
 40
7.0
  1
　　4
 72
     1
 11
861.5
 21
773.5
 31
0.0
100
AcDbText
 73
     2
  0
TEXT
  5
DD6
330
1E
100
AcDbEntity
  8
2
100
AcDbText
 10
841.3666666666667
 20
786.0
 30
0.0
 40
7.0
  1
　　3
 72
     1
 11
861.5
 21
789.5
 31
0.0
100
AcDbText
 73
     2
  0
TEXT
  5
DD7
330
1E
100
AcDbEntity
  8
2
100
AcDbText
 10
841.3666666666667
 20
802.0
 30
0.0
 40
7.0
  1
　　2
 72
     1
 11
861.5
 21
805.4999999999999
 31
0.0
100
AcDbText
 73
     2
  0
TEXT
  5
DD8
330
1E
100
AcDbEntity
  8
2
100
AcDbText
 10
841.8666666666666
 20
818.0
 30
0.0
 40
7.0
  1
　　1
 72
     1
 11
861.5
 21
821.4999999999999
 31
0.0
100
AcDbText
 73
     2
  0
TEXT
  5
E36
330
1E
100
AcDbEntity
  8
11
100
AcDbText
 10
930.6123595505617
 20
52.20200375030277
 30
0.0
 40
15.0
  1
グランドデュークス株式会社
  7
ｽﾀｲﾙ1
 72
     1
 11
1055.5
 21
59.70200375030277
 31
0.0
100
AcDbText
 73
     2
  0
TEXT
  5
EA7
330
1E
100
AcDbEntity
  8
2
100
AcDbText
 10
1030.933333333333
 20
818.0
 30
0.0
 40
7.0
  1
　12
 72
     1
 11
1046.499999999999
 21
821.4999999999999
 31
0.0
100
AcDbText
 73
     2
  0
TEXT
  5
EAA
330
1E
100
AcDbEntity
  8
2
100
AcDbText
 10
846.4413505040864
 20
658.0
 30
0.0
 40
7.0
  1
　11
 72
     1
 11
861.0080171707531
 21
661.5
 31
0.0
100
AcDbText
 73
     2
  0
TEXT
  5
EB1
330
1E
100
AcDbEntity
  8
2
100
AcDbText
 10
845.9333333333333
 20
674.0
 30
0.0
 40
7.0
  1
　10
 72
     1
 11
861.5
 21
677.5
 31
0.0
100
AcDbText
 73
     2
  0
TEXT
  5
EB2
330
1E
100
AcDbEntity
  8
2
100
AcDbText
 10
1023.266666666666
 20
738.0
 30
0.0
 40
7.0
  1
　12-5
 72
     1
 11
1046.499999999999
 21
741.5
 31
0.0
100
AcDbText
 73
     2
  0
TEXT
  5
EB3
330
1E
100
AcDbEntity
  8
2
100
AcDbText
 10
1023.266666666666
 20
770.0
 30
0.0
 40
7.0
  1
　12-3
 72
     1
 11
1046.499999999999
 21
773.5
 31
0.0
100
AcDbText
 73
     2
  0
TEXT
  5
EB4
330
1E
100
AcDbEntity
  8
2
100
AcDbText
 10
1023.1
 20
754.0
 30
0.0
 40
7.0
  1
　12-4
 72
     1
 11
1046.499999999999
 21
757.5
 31
0.0
100
AcDbText
 73
     2
  0
TEXT
  5
EB5
330
1E
100
AcDbEntity
  8
2
100
AcDbText
 10
1023.266666666666
 20
786.0
 30
0.0
 40
7.0
  1
　12-2
 72
     1
 11
1046.499999999999
 21
789.5
 31
0.0
100
AcDbText
 73
     2
  0
TEXT
  5
EB6
330
1E
100
AcDbEntity
  8
2
100
AcDbText
 10
1023.099718850264
 20
802.0
 30
0.0
 40
7.0
  1
　12-1
 72
     1
 11
1045.333052183597
 21
805.4999999999999
 31
0.0
100
AcDbText
 73
     2
  0
TEXT
  5
EB7
330
1E
100
AcDbEntity
  8
2
100
AcDbText
 10
1023.266666666666
 20
706.0
 30
0.0
 40
7.0
  1
　12-7
 72
     1
 11
1046.499999999999
 21
709.4999999999999
 31
0.0
100
AcDbText
 73
     2
  0
TEXT
  5
EC3
330
1E
100
AcDbEntity
  8
2
100
AcDbText
 10
1030.933333333333
 20
690.0
 30
0.0
 40
7.0
  1
　13
 72
     1
 11
1046.499999999999
 21
693.5
 31
0.0
100
AcDbText
 73
     2
  0
TEXT
  5
EC4
330
1E
100
AcDbEntity
  8
2
100
AcDbText
 10
1030.766666666666
 20
674.0
 30
0.0
 40
7.0
  1
　14
 72
     1
 11
1046.499999999999
 21
677.5
 31
0.0
100
AcDbText
 73
     2
  0
TEXT
  5
EC5
330
1E
100
AcDbEntity
  8
2
100
AcDbText
 10
1023.266666666666
 20
722.0
 30
0.0
 40
7.0
  1
　12-6
 72
     1
 11
1046.499999999999
 21
725.4999999999999
 31
0.0
100
AcDbText
 73
     2
  0
CIRCLE
  5
F42
330
1E
100
AcDbEntity
  8
3
 62
     4
100
AcDbCircle
 10
587.7320508556766
 20
479.4999999166747
 30
0.0
 40
8.0
  0
ARC
  5
F43
330
1E
100
AcDbEntity
  8
3
 62
     4
100
AcDbCircle
 10
590.0
 20
128.4999999999999
 30
0.0
 40
8.0
100
AcDbArc
 50
270.0
 51
90.0
  0
ARC
  5
F45
330
1E
100
AcDbEntity
  8
3
 62
     4
100
AcDbCircle
 10
582.0
 20
128.4999999999999
 30
0.0
 40
8.0
100
AcDbArc
 50
90.0
 51
270.0
  0
LINE
  5
F48
330
1E
100
AcDbEntity
  8
3
 62
     4
100
AcDbLine
 10
582.0
 20
120.5
 30
0.0
 11
590.0
 21
120.5
 31
0.0
  0
LINE
  5
F4A
330
1E
100
AcDbEntity
  8
3
 62
     4
100
AcDbLine
 10
582.0
 20
136.4999999999999
 30
0.0
 11
590.0
 21
136.4999999999999
 31
0.0
  0
ARC
  5
F6E
330
1E
100
AcDbEntity
  8
3
 62
     4
100
AcDbCircle
 10
857.5000000000001
 20
661.5
 30
0.0
 40
6.0
100
AcDbArc
 50
90.0
 51
270.0
  0
LINE
  5
F6F
330
1E
100
AcDbEntity
  8
3
 62
     4
100
AcDbLine
 10
857.5000000000001
 20
655.4999999999999
 30
0.0
 11
865.4999999999999
 21
655.4999999999999
 31
0.0
  0
ARC
  5
F70
330
1E
100
AcDbEntity
  8
3
 62
     4
100
AcDbCircle
 10
865.4999999999999
 20
661.5
 30
0.0
 40
6.0
100
AcDbArc
 50
270.0
 51
90.0
  0
LINE
  5
F71
330
1E
100
AcDbEntity
  8
3
 62
     4
100
AcDbLine
 10
857.5000000000001
 20
667.4999999999999
 30
0.0
 11
865.4999999999999
 21
667.4999999999999
 31
0.0
  0
ARC
  5
F72
330
1E
100
AcDbEntity
  8
3
 62
     4
100
AcDbCircle
 10
857.5000000000001
 20
677.5
 30
0.0
 40
6.0
100
AcDbArc
 50
90.0
 51
270.0
  0
LINE
  5
F73
330
1E
100
AcDbEntity
  8
3
 62
     4
100
AcDbLine
 10
857.5000000000001
 20
671.4999999999999
 30
0.0
 11
865.4999999999999
 21
671.4999999999999
 31
0.0
  0
ARC
  5
F74
330
1E
100
AcDbEntity
  8
3
 62
     4
100
AcDbCircle
 10
865.4999999999999
 20
677.5
 30
0.0
 40
6.0
100
AcDbArc
 50
270.0
 51
90.0
  0
LINE
  5
F75
330
1E
100
AcDbEntity
  8
3
 62
     4
100
AcDbLine
 10
857.5000000000001
 20
683.4999999999999
 30
0.0
 11
865.4999999999999
 21
683.4999999999999
 31
0.0
  0
ARC
  5
F97
330
1E
100
AcDbEntity
  8
3
 62
     4
100
AcDbCircle
 10
509.4999999999999
 20
473.5
 30
0.0
 40
8.0
100
AcDbArc
 50
90.0
 51
270.0
  0
ARC
  5
F98
330
1E
100
AcDbEntity
  8
3
 62
     4
100
AcDbCircle
 10
517.4999999999999
 20
473.5
 30
0.0
 40
8.0
100
AcDbArc
 50
270.0
 51
90.0
  0
LINE
  5
F99
330
1E
100
AcDbEntity
  8
3
 62
     4
100
AcDbLine
 10
509.4999999999999
 20
481.5
 30
0.0
 11
517.4999999999999
 21
481.5
 31
0.0
  0
LINE
  5
F9A
330
1E
100
AcDbEntity
  8
3
 62
     4
100
AcDbLine
 10
509.4999999999999
 20
465.5
 30
0.0
 11
517.4999999999999
 21
465.5
 31
0.0
  0
CIRCLE
  5
FD7
330
1E
100
AcDbEntity
  8
3
 62
     4
100
AcDbCircle
 10
861.5
 20
709.4999999999999
 30
0.0
 40
6.810977503248523
  0
CIRCLE
  5
FD8
330
1E
100
AcDbEntity
  8
3
 62
     4
100
AcDbCircle
 10
861.5
 20
693.5
 30
0.0
 40
6.991550821570399
  0
TEXT
  5
FED
330
1E
100
AcDbEntity
  8
2
100
AcDbText
 10
835.2672968702549
 20
590.6698543198131
 30
0.0
 40
10.0
  1
注）品番の 8  9 10 11 は本体に含まれません。
 41
0.9
100
AcDbText
  0
TEXT
  5
FEE
330
1E
100
AcDbEntity
  8
2
100
AcDbText
 10
835.2672968702549
 20
611.8263864706518
 30
0.0
 40
10.0
  1
注）品番の11 は呼び径（配管口径）２０ｍｍと１３ｍｍの２種類有り。
 41
0.9
100
AcDbText
  0
ARC
  5
FEF
330
1E
100
AcDbEntity
  8
3
 62
     4
100
AcDbCircle
 10
902.7345728083988
 20
616.8724095312622
 30
0.0
 40
7.0
100
AcDbArc
 50
270.0
 51
90.0
  0
ARC
  5
FF0
330
1E
100
AcDbEntity
  8
3
 62
     4
100
AcDbCircle
 10
894.7345728083988
 20
616.8724095312622
 30
0.0
 40
7.0
100
AcDbArc
 50
90.0
 51
270.0
  0
CIRCLE
  5
FF1
330
1E
100
AcDbEntity
  8
0
  6
CONTINUOUS
 62
     4
100
AcDbCircle
 10
918.577682369526
 20
596.0253955258754
 30
0.0
 40
7.388937750261447
  0
CIRCLE
  5
FF2
330
1E
100
AcDbEntity
  8
0
  6
CONTINUOUS
 62
     4
100
AcDbCircle
 10
898.9834892100915
 20
596.0253955258754
 30
0.0
 40
7.214404146386186
  0
LINE
  5
FF3
330
1E
100
AcDbEntity
  8
3
 62
     4
100
AcDbLine
 10
894.7345728083988
 20
609.8724095312623
 30
0.0
 11
902.7345728083988
 21
609.8724095312623
 31
0.0
  0
ARC
  5
FF4
330
1E
100
AcDbEntity
  8
3
 62
     4
100
AcDbCircle
 10
956.0150774879325
 20
595.9890936170604
 30
0.0
 40
7.0
100
AcDbArc
 50
90.0
 51
270.0
  0
ARC
  5
FF5
330
1E
100
AcDbEntity
  8
3
 62
     4
100
AcDbCircle
 10
940.6394382058993
 20
595.9890936170604
 30
0.0
 40
7.0
100
AcDbArc
 50
270.0
 51
90.0
  0
ARC
  5
FF6
330
1E
100
AcDbEntity
  8
3
 62
     4
100
AcDbCircle
 10
934.1458795783214
 20
595.9890936170604
 30
0.0
 40
7.0
100
AcDbArc
 50
90.0
 51
270.0
  0
LINE
  5
FF7
330
1E
100
AcDbEntity
  8
3
 62
     4
100
AcDbLine
 10
934.1458795783214
 20
588.9890936170604
 30
0.0
 11
940.6394382058993
 21
588.9890936170604
 31
0.0
  0
LINE
  5
FF8
330
1E
100
AcDbEntity
  8
3
 62
     4
100
AcDbLine
 10
934.1458795783214
 20
602.9890936170605
 30
0.0
 11
940.6394382058993
 21
602.9890936170605
 31
0.0
  0
ARC
  5
FF9
330
1E
100
AcDbEntity
  8
3
 62
     4
100
AcDbCircle
 10
962.5086361155103
 20
595.9890936170604
 30
0.0
 40
7.0
100
AcDbArc
 50
270.0
 51
90.0
  0
LINE
  5
FFA
330
1E
100
AcDbEntity
  8
3
 62
     4
100
AcDbLine
 10
956.0150774879325
 20
588.9890936170604
 30
0.0
 11
962.5086361155103
 21
588.9890936170604
 31
0.0
  0
LINE
  5
FFB
330
1E
100
AcDbEntity
  8
3
 62
     4
100
AcDbLine
 10
956.0150774879325
 20
602.9890936170605
 30
0.0
 11
962.5086361155103
 21
602.9890936170605
 31
0.0
  0
LINE
  5
FFC
330
1E
100
AcDbEntity
  8
3
 62
     4
100
AcDbLine
 10
894.7345728083988
 20
623.8724095312623
 30
0.0
 11
902.7345728083988
 21
623.8724095312623
 31
0.0
  0
TEXT
  5
1015
330
1E
100
AcDbEntity
  8
2
100
AcDbText
 10
835.2672968702549
 20
590.6698543198131
 30
0.0
 40
10.0
  1
注）品番の 8  9 10 11 は本体に含まれません。
 41
0.9
100
AcDbText
  0
TEXT
  5
1016
330
1E
100
AcDbEntity
  8
2
100
AcDbText
 10
835.2672968702549
 20
611.8263864706518
 30
0.0
 40
10.0
  1
注）品番の11 は呼び径（配管口径）２０ｍｍと１３ｍｍの２種類有り。
 41
0.9
100
AcDbText
  0
ARC
  5
1017
330
1E
100
AcDbEntity
  8
3
 62
     4
100
AcDbCircle
 10
902.7345728083988
 20
616.8724095312622
 30
0.0
 40
7.0
100
AcDbArc
 50
270.0
 51
90.0
  0
ARC
  5
1018
330
1E
100
AcDbEntity
  8
3
 62
     4
100
AcDbCircle
 10
894.7345728083988
 20
616.8724095312622
 30
0.0
 40
7.0
100
AcDbArc
 50
90.0
 51
270.0
  0
CIRCLE
  5
1019
330
1E
100
AcDbEntity
  8
0
  6
CONTINUOUS
 62
     4
100
AcDbCircle
 10
918.577682369526
 20
596.0253955258754
 30
0.0
 40
7.388937750261447
  0
CIRCLE
  5
101A
330
1E
100
AcDbEntity
  8
0
  6
CONTINUOUS
 62
     4
100
AcDbCircle
 10
898.9834892100915
 20
596.0253955258754
 30
0.0
 40
7.214404146386186
  0
LINE
  5
101B
330
1E
100
AcDbEntity
  8
3
 62
     4
100
AcDbLine
 10
894.7345728083988
 20
609.8724095312623
 30
0.0
 11
902.7345728083988
 21
609.8724095312623
 31
0.0
  0
ARC
  5
101C
330
1E
100
AcDbEntity
  8
3
 62
     4
100
AcDbCircle
 10
956.0150774879325
 20
595.9890936170604
 30
0.0
 40
7.0
100
AcDbArc
 50
90.0
 51
270.0
  0
ARC
  5
101D
330
1E
100
AcDbEntity
  8
3
 62
     4
100
AcDbCircle
 10
940.6394382058993
 20
595.9890936170604
 30
0.0
 40
7.0
100
AcDbArc
 50
270.0
 51
90.0
  0
ARC
  5
101E
330
1E
100
AcDbEntity
  8
3
 62
     4
100
AcDbCircle
 10
934.1458795783214
 20
595.9890936170604
 30
0.0
 40
7.0
100
AcDbArc
 50
90.0
 51
270.0
  0
LINE
  5
101F
330
1E
100
AcDbEntity
  8
3
 62
     4
100
AcDbLine
 10
934.1458795783214
 20
588.9890936170604
 30
0.0
 11
940.6394382058993
 21
588.9890936170604
 31
0.0
  0
LINE
  5
1020
330
1E
100
AcDbEntity
  8
3
 62
     4
100
AcDbLine
 10
934.1458795783214
 20
602.9890936170605
 30
0.0
 11
940.6394382058993
 21
602.9890936170605
 31
0.0
  0
ARC
  5
1021
330
1E
100
AcDbEntity
  8
3
 62
     4
100
AcDbCircle
 10
962.5086361155103
 20
595.9890936170604
 30
0.0
 40
7.0
100
AcDbArc
 50
270.0
 51
90.0
  0
LINE
  5
1022
330
1E
100
AcDbEntity
  8
3
 62
     4
100
AcDbLine
 10
956.0150774879325
 20
588.9890936170604
 30
0.0
 11
962.5086361155103
 21
588.9890936170604
 31
0.0
  0
LINE
  5
1023
330
1E
100
AcDbEntity
  8
3
 62
     4
100
AcDbLine
 10
956.0150774879325
 20
602.9890936170605
 30
0.0
 11
962.5086361155103
 21
602.9890936170605
 31
0.0
  0
LINE
  5
1024
330
1E
100
AcDbEntity
  8
3
 62
     4
100
AcDbLine
 10
894.7345728083988
 20
623.8724095312623
 30
0.0
 11
902.7345728083988
 21
623.8724095312623
 31
0.0
  0
CIRCLE
  5
1025
330
1E
100
AcDbEntity
  8
3
 62
     4
100
AcDbCircle
 10
482.0000002798494
 20
636.4999999141353
 30
0.0
 40
6.393912721437118
  0
CIRCLE
  5
1026
330
1E
100
AcDbEntity
  8
3
 62
     4
100
AcDbCircle
 10
482.0000002798494
 20
636.4999999141353
 30
0.0
 40
8.0
  0
CIRCLE
  5
1027
330
1E
100
AcDbEntity
  8
3
 62
     4
100
AcDbCircle
 10
482.0000002798494
 20
606.4999999141353
 30
0.0
 40
6.393912721437118
  0
CIRCLE
  5
1028
330
1E
100
AcDbEntity
  8
3
 62
     4
100
AcDbCircle
 10
482.0000002798494
 20
606.4999999141353
 30
0.0
 40
8.0
  0
LINE
  5
1032
330
1E
100
AcDbEntity
  8
2
100
AcDbLine
 10
1204.0
 20
637.5
 30
0.0
 11
834.0
 21
637.5
 31
0.0
  0
ENDSEC
  0
SECTION
  2
OBJECTS
  0
DICTIONARY
  5
C
330
0
100
AcDbDictionary
  3
ACAD_GROUP
350
D
  3
ACAD_LAYOUT
350
19
  3
ACAD_MLINESTYLE
350
16
  3
ACAD_PLOTSETTINGS
350
18
  3
ACAD_PLOTSTYLENAME
350
E
  3
ACDBHEADERROUNDTRIPXREC
350
1048
  0
DICTIONARY
  5
106A
330
1E
100
AcDbDictionary
280
     1
  3
ACAD_LAYOUTSELFREF
360
106B
  0
DICTIONARY
  5
1068
330
1A
100
AcDbDictionary
280
     1
  3
ACAD_LAYOUTSELFREF
360
1069
  0
DICTIONARY
  5
D
102
{ACAD_REACTORS
330
C
102
}
330
C
100
AcDbDictionary
  0
DICTIONARY
  5
19
102
{ACAD_REACTORS
330
C
102
}
330
C
100
AcDbDictionary
  0
DICTIONARY
  5
16
102
{ACAD_REACTORS
330
C
102
}
330
C
100
AcDbDictionary
  3
STANDARD
350
17
  0
DICTIONARY
  5
18
102
{ACAD_REACTORS
330
C
102
}
330
C
100
AcDbDictionary
  0
ACDBDICTIONARYWDFLT
  5
E
102
{ACAD_REACTORS
330
C
102
}
330
C
100
AcDbDictionary
281
     1
  3
Normal
350
F
100
AcDbDictionaryWithDefault
340
F
  0
DICTIONARY
  5
1048
102
{ACAD_REACTORS
330
C
102
}
330
C
100
AcDbDictionary
  3
TSTACKALIGN
350
1049
  3
TSTACKSIZE
350
104A
  3
HYPERLINKBASE
350
104B
  3
STYLESHEET
350
104C
  3
LAYOUTDICT
350
104D
  3
PLOTSETDICT
350
104E
  3
PLOTSTYLNAMDICT
350
104F
  3
LWETCUNION
350
1050
  3
INSUNITS
350
1051
  3
CEPSNTYPE
350
1052
  3
FINGERPRINTGUID
350
1053
  3
VERSIONGUID
350
1054
  3
PSVPSCALE
350
1055
  3
PUCSORTHOREF
350
1056
  3
PUCSORTHOVIEW
350
1057
  3
PUCSBASE
350
1058
  3
PUCSORGTOP
350
1059
  3
PUCSORGBOTTOM
350
105A
  3
PUCSORGLEFT
350
105B
  3
PUCSORGRIGHT
350
105C
  3
PUCSORGFRONT
350
105D
  3
PUCSORGBACK
350
105E
  3
UCSORTHOREF
350
105F
  3
UCSORTHOVIEW
350
1060
  3
UCSBASE
350
1061
  3
UCSORGTOP
350
1062
  3
UCSORGBOTTOM
350
1063
  3
UCSORGLEFT
350
1064
  3
UCSORGRIGHT
350
1065
  3
UCSORGFRONT
350
1066
  3
UCSORGBACK
350
1067
  0
XRECORD
  5
106B
102
{ACAD_REACTORS
330
106A
102
}
330
106A
100
AcDbXrecord
340
1E
  0
XRECORD
  5
1069
102
{ACAD_REACTORS
330
1068
102
}
330
1068
100
AcDbXrecord
340
1A
  0
MLINESTYLE
  5
17
102
{ACAD_REACTORS
330
16
102
}
330
16
100
AcDbMlineStyle
  2
STANDARD
 70
     0
  3

 62
   256
 51
90.0
 52
90.0
 71
     2
 49
0.5
 62
   256
  6
BYLAYER
 49
-0.5
 62
   256
  6
BYLAYER
  0
ACDBPLACEHOLDER
  5
F
102
{ACAD_REACTORS
330
E
102
}
330
E
100
AcDbPlaceHolder
280
     0
  0
XRECORD
  5
1049
102
{ACAD_REACTORS
330
1048
102
}
330
1048
100
AcDbXrecord
 90
        1
  0
XRECORD
  5
104A
102
{ACAD_REACTORS
330
1048
102
}
330
1048
100
AcDbXrecord
 90
       70
  0
XRECORD
  5
104B
102
{ACAD_REACTORS
330
1048
102
}
330
1048
100
AcDbXrecord
  1

  0
XRECORD
  5
104C
102
{ACAD_REACTORS
330
1048
102
}
330
1048
100
AcDbXrecord
  1
1.ctb
  0
XRECORD
  5
104D
102
{ACAD_REACTORS
330
1048
102
}
330
1048
100
AcDbXrecord
340
19
  0
XRECORD
  5
104E
102
{ACAD_REACTORS
330
1048
102
}
330
1048
100
AcDbXrecord
340
18
  0
XRECORD
  5
104F
102
{ACAD_REACTORS
330
1048
102
}
330
1048
100
AcDbXrecord
340
E
  0
XRECORD
  5
1050
102
{ACAD_REACTORS
330
1048
102
}
330
1048
100
AcDbXrecord
 90
    10781
  0
XRECORD
  5
1051
102
{ACAD_REACTORS
330
1048
102
}
330
1048
100
AcDbXrecord
 90
        0
  0
XRECORD
  5
1052
102
{ACAD_REACTORS
330
1048
102
}
330
1048
100
AcDbXrecord
 90
        0
  0
XRECORD
  5
1053
102
{ACAD_REACTORS
330
1048
102
}
330
1048
100
AcDbXrecord
  1
{5C8D54FA-2934-4C63-87EA-2471474A2E82}
  0
XRECORD
  5
1054
102
{ACAD_REACTORS
330
1048
102
}
330
1048
100
AcDbXrecord
  1
{B6C167B1-C74E-4968-BD34-1D955026D322}
  0
XRECORD
  5
1055
102
{ACAD_REACTORS
330
1048
102
}
330
1048
100
AcDbXrecord
 40
0.0
  0
XRECORD
  5
1056
102
{ACAD_REACTORS
330
1048
102
}
330
1048
100
AcDbXrecord
340
0
  0
XRECORD
  5
1057
102
{ACAD_REACTORS
330
1048
102
}
330
1048
100
AcDbXrecord
 70
     0
  0
XRECORD
  5
1058
102
{ACAD_REACTORS
330
1048
102
}
330
1048
100
AcDbXrecord
340
0
  0
XRECORD
  5
1059
102
{ACAD_REACTORS
330
1048
102
}
330
1048
100
AcDbXrecord
 10
0.0
 20
0.0
 30
0.0
  0
XRECORD
  5
105A
102
{ACAD_REACTORS
330
1048
102
}
330
1048
100
AcDbXrecord
 10
0.0
 20
0.0
 30
0.0
  0
XRECORD
  5
105B
102
{ACAD_REACTORS
330
1048
102
}
330
1048
100
AcDbXrecord
 10
0.0
 20
0.0
 30
0.0
  0
XRECORD
  5
105C
102
{ACAD_REACTORS
330
1048
102
}
330
1048
100
AcDbXrecord
 10
0.0
 20
0.0
 30
0.0
  0
XRECORD
  5
105D
102
{ACAD_REACTORS
330
1048
102
}
330
1048
100
AcDbXrecord
 10
0.0
 20
0.0
 30
0.0
  0
XRECORD
  5
105E
102
{ACAD_REACTORS
330
1048
102
}
330
1048
100
AcDbXrecord
 10
0.0
 20
0.0
 30
0.0
  0
XRECORD
  5
105F
102
{ACAD_REACTORS
330
1048
102
}
330
1048
100
AcDbXrecord
340
0
  0
XRECORD
  5
1060
102
{ACAD_REACTORS
330
1048
102
}
330
1048
100
AcDbXrecord
 70
     0
  0
XRECORD
  5
1061
102
{ACAD_REACTORS
330
1048
102
}
330
1048
100
AcDbXrecord
340
0
  0
XRECORD
  5
1062
102
{ACAD_REACTORS
330
1048
102
}
330
1048
100
AcDbXrecord
 10
0.0
 20
0.0
 30
0.0
  0
XRECORD
  5
1063
102
{ACAD_REACTORS
330
1048
102
}
330
1048
100
AcDbXrecord
 10
0.0
 20
0.0
 30
0.0
  0
XRECORD
  5
1064
102
{ACAD_REACTORS
330
1048
102
}
330
1048
100
AcDbXrecord
 10
0.0
 20
0.0
 30
0.0
  0
XRECORD
  5
1065
102
{ACAD_REACTORS
330
1048
102
}
330
1048
100
AcDbXrecord
 10
0.0
 20
0.0
 30
0.0
  0
XRECORD
  5
1066
102
{ACAD_REACTORS
330
1048
102
}
330
1048
100
AcDbXrecord
 10
0.0
 20
0.0
 30
0.0
  0
XRECORD
  5
1067
102
{ACAD_REACTORS
330
1048
102
}
330
1048
100
AcDbXrecord
 10
0.0
 20
0.0
 30
0.0
  0
ENDSEC
  0
EOF
