  0
SECTION
  2
HEADER
  9
$ACADVER
  1
AC1014
  9
$ACADMAINTVER
 70
     9
  9
$DWGCODEPAGE
  3
ANSI_932
  9
$INSBASE
 10
637.1535345869038
 20
698.3462867046474
 30
0.0
  9
$EXTMIN
 10
351.6352925869038
 20
635.6326329316765
 30
0.0
  9
$EXTMAX
 10
663.1535345869037
 20
729.3054027046475
 30
0.0
  9
$LIMMIN
 10
31.0
 20
25.5
  9
$LIMMAX
 10
1219.0
 20
865.4999999999999
  9
$ORTHOMODE
 70
     1
  9
$REGENMODE
 70
     1
  9
$FILLMODE
 70
     1
  9
$QTEXTMODE
 70
     0
  9
$MIRRTEXT
 70
     0
  9
$DRAGMODE
 70
     2
  9
$LTSCALE
 40
2.0
  9
$OSMODE
 70
   513
  9
$ATTMODE
 70
     1
  9
$TEXTSIZE
 40
0.2
  9
$TRACEWID
 40
0.05
  9
$TEXTSTYLE
  7
ｽﾀｲﾙ1
  9
$CLAYER
  8
0
  9
$CELTYPE
  6
CONTINUOUS
  9
$CECOLOR
 62
   256
  9
$CELTSCALE
 40
1.0
  9
$DELOBJ
 70
     1
  9
$DISPSILH
 70
     0
  9
$DIMSCALE
 40
3.0
  9
$DIMASZ
 40
2.0
  9
$DIMEXO
 40
2.0
  9
$DIMDLI
 40
7.0
  9
$DIMRND
 40
0.0
  9
$DIMDLE
 40
0.0
  9
$DIMEXE
 40
0.5
  9
$DIMTP
 40
0.0
  9
$DIMTM
 40
0.0
  9
$DIMTXT
 40
2.0
  9
$DIMCEN
 40
0.09
  9
$DIMTSZ
 40
0.0
  9
$DIMTOL
 70
     0
  9
$DIMLIM
 70
     0
  9
$DIMTIH
 70
     0
  9
$DIMTOH
 70
     0
  9
$DIMSE1
 70
     0
  9
$DIMSE2
 70
     0
  9
$DIMTAD
 70
     1
  9
$DIMZIN
 70
     8
  9
$DIMBLK
  1
OPEN
  9
$DIMASO
 70
     1
  9
$DIMSHO
 70
     1
  9
$DIMPOST
  1

  9
$DIMAPOST
  1

  9
$DIMALT
 70
     0
  9
$DIMALTD
 70
     2
  9
$DIMALTF
 40
0.03937
  9
$DIMLFAC
 40
1.0
  9
$DIMTOFL
 70
     1
  9
$DIMTVP
 40
0.0
  9
$DIMTIX
 70
     0
  9
$DIMSOXD
 70
     0
  9
$DIMSAH
 70
     0
  9
$DIMBLK1
  1

  9
$DIMBLK2
  1

  9
$DIMSTYLE
  2
G1
  9
$DIMCLRD
 70
     0
  9
$DIMCLRE
 70
     0
  9
$DIMCLRT
 70
     7
  9
$DIMTFAC
 40
1.0
  9
$DIMGAP
 40
0.8
  9
$DIMJUST
 70
     0
  9
$DIMSD1
 70
     0
  9
$DIMSD2
 70
     0
  9
$DIMTOLJ
 70
     1
  9
$DIMTZIN
 70
     0
  9
$DIMALTZ
 70
     0
  9
$DIMALTTZ
 70
     0
  9
$DIMFIT
 70
     3
  9
$DIMUPT
 70
     0
  9
$DIMUNIT
 70
     2
  9
$DIMDEC
 70
     2
  9
$DIMTDEC
 70
     2
  9
$DIMALTU
 70
     2
  9
$DIMALTTD
 70
     2
  9
$DIMTXSTY
  7
STANDARD
  9
$DIMAUNIT
 70
     0
  9
$LUNITS
 70
     2
  9
$LUPREC
 70
     4
  9
$SKETCHINC
 40
0.1
  9
$FILLETRAD
 40
5.0
  9
$AUNITS
 70
     0
  9
$AUPREC
 70
     0
  9
$MENU
  1
.
  9
$ELEVATION
 40
0.0
  9
$PELEVATION
 40
0.0
  9
$THICKNESS
 40
0.0
  9
$LIMCHECK
 70
     0
  9
$BLIPMODE
 70
     0
  9
$CHAMFERA
 40
0.0
  9
$CHAMFERB
 40
0.0
  9
$CHAMFERC
 40
0.0
  9
$CHAMFERD
 40
0.0
  9
$SKPOLY
 70
     0
  9
$TDCREATE
 40
2452110.000000000
  9
$TDUPDATE
 40
2453944.012823345
  9
$TDINDWG
 40
0.4429638426
  9
$TDUSRTIMER
 40
0.4429636574
  9
$USRTIMER
 70
     1
  9
$ANGBASE
 50
0.0
  9
$ANGDIR
 70
     0
  9
$PDMODE
 70
     3
  9
$PDSIZE
 40
0.0
  9
$PLINEWID
 40
0.0
  9
$COORDS
 70
     1
  9
$SPLFRAME
 70
     0
  9
$SPLINETYPE
 70
     6
  9
$SPLINESEGS
 70
     8
  9
$ATTDIA
 70
     0
  9
$ATTREQ
 70
     1
  9
$HANDLING
 70
 10241
  9
$HANDSEED
  5
E7
  9
$SURFTAB1
 70
     6
  9
$SURFTAB2
 70
     6
  9
$SURFTYPE
 70
     6
  9
$SURFU
 70
     6
  9
$SURFV
 70
     6
  9
$UCSNAME
  2

  9
$UCSORG
 10
0.0
 20
0.0
 30
0.0
  9
$UCSXDIR
 10
1.0
 20
0.0
 30
0.0
  9
$UCSYDIR
 10
0.0
 20
1.0
 30
0.0
  9
$PUCSNAME
  2

  9
$PUCSORG
 10
0.0
 20
0.0
 30
0.0
  9
$PUCSXDIR
 10
1.0
 20
0.0
 30
0.0
  9
$PUCSYDIR
 10
0.0
 20
1.0
 30
0.0
  9
$USERI1
 70
     0
  9
$USERI2
 70
     0
  9
$USERI3
 70
     0
  9
$USERI4
 70
     0
  9
$USERI5
 70
     0
  9
$USERR1
 40
0.0
  9
$USERR2
 40
0.0
  9
$USERR3
 40
0.0
  9
$USERR4
 40
0.0
  9
$USERR5
 40
0.0
  9
$WORLDVIEW
 70
     1
  9
$SHADEDGE
 70
     3
  9
$SHADEDIF
 70
    70
  9
$TILEMODE
 70
     1
  9
$MAXACTVP
 70
    48
  9
$PINSBASE
 10
0.0
 20
0.0
 30
0.0
  9
$PLIMCHECK
 70
     0
  9
$PEXTMIN
 10
1.000000000000000E+20
 20
1.000000000000000E+20
 30
1.000000000000000E+20
  9
$PEXTMAX
 10
-1.000000000000000E+20
 20
-1.000000000000000E+20
 30
-1.000000000000000E+20
  9
$PLIMMIN
 10
0.0
 20
0.0
  9
$PLIMMAX
 10
12.0
 20
9.0
  9
$UNITMODE
 70
     0
  9
$VISRETAIN
 70
     1
  9
$PLINEGEN
 70
     0
  9
$PSLTSCALE
 70
     1
  9
$TREEDEPTH
 70
  3020
  9
$PICKSTYLE
 70
     1
  9
$CMLSTYLE
  2
STANDARD
  9
$CMLJUST
 70
     0
  9
$CMLSCALE
 40
1.0
  9
$PROXYGRAPHICS
 70
     1
  9
$MEASUREMENT
 70
     0
  0
ENDSEC
  0
SECTION
  2
CLASSES
  0
CLASS
  1
ACDBDICTIONARYWDFLT
  2
AcDbDictionaryWithDefault
  3
AutoCAD 2000
 90
        0
280
     0
281
     0
  0
CLASS
  1
ACDBPLACEHOLDER
  2
AcDbPlaceHolder
  3
AutoCAD 2000
 90
        0
280
     0
281
     0
  0
CLASS
  1
LAYOUT
  2
AcDbLayout
  3
AutoCAD 2000
 90
        0
280
     0
281
     0
  0
CLASS
  1
TABLESTYLE
  2
AcDbTableStyle
  3
ObjectDBX Classes
 90
     2047
280
     0
281
     0
  0
CLASS
  1
SORTENTSTABLE
  2
AcDbSortentsTable
  3
AutoCAD 2000
 90
        0
280
     0
281
     0
  0
CLASS
  1
DICTIONARYVAR
  2
AcDbDictionaryVar
  3
AutoCAD 2000
 90
        0
280
     0
281
     0
  0
CLASS
  1
ACAD_PROXY_OBJECT_WRAPPER
  2
AcDbProxyObjectWrapper
  3
AutoCAD 2000
 90
        0
280
     0
281
     0
  0
CLASS
  1
LONG_TRANSACTION
  2
AcDbLongTransaction
  3
AutoCAD 2000
 90
        0
280
     0
281
     0
  0
CLASS
  1
LWPOLYLINE
  2
AcDbPolyline
  3
AutoCAD 2000
 90
        0
280
     0
281
     1
  0
CLASS
  1
HATCH
  2
AcDbHatch
  3
AutoCAD 2000
 90
        0
280
     0
281
     1
  0
CLASS
  1
XRECORD
  2
AcDbXrecord
  3
AutoCAD 2000
 90
        0
280
     0
281
     0
  0
CLASS
  1
LONG_TRANSACTION
  2
AcDbLongTransaction
  3
AutoCAD 2000
 90
        0
280
     0
281
     0
  0
CLASS
  1
LWPOLYLINE
  2
AcDbPolyline
  3
AutoCAD 2000
 90
        0
280
     0
281
     1
  0
CLASS
  1
HATCH
  2
AcDbHatch
  3
AutoCAD 2000
 90
        0
280
     0
281
     1
  0
CLASS
  1
XRECORD
  2
AcDbXrecord
  3
AutoCAD 2000
 90
        0
280
     0
281
     0
  0
ENDSEC
  0
SECTION
  2
TABLES
  0
TABLE
  2
VPORT
  5
23
330
0
100
AcDbSymbolTable
 70
     2
  0
VPORT
  5
C3
330
23
100
AcDbSymbolTableRecord
100
AcDbViewportTableRecord
  2
*ACTIVE
 70
     0
 10
0.0
 20
0.0
 11
1.0
 21
1.0
 12
512.1469309725731
 22
682.4613669777306
 13
0.0
 23
0.0
 14
1.0
 24
1.0
 15
0.0
 25
0.0
 16
0.0
 26
0.0
 36
1.0
 17
0.0
 27
0.0
 37
0.0
 40
167.1156681054223
 41
1.933867735470941
 42
50.0
 43
0.0
 44
0.0
 50
0.0
 51
0.0
 71
     0
 72
   100
 73
     1
 74
     1
 75
     0
 76
     0
 77
     0
 78
     0
  0
ENDTAB
  0
TABLE
  2
LTYPE
  5
1E
330
0
100
AcDbSymbolTable
 70
     1
  0
LTYPE
  5
1F
330
1E
100
AcDbSymbolTableRecord
100
AcDbLinetypeTableRecord
  2
BYBLOCK
 70
     0
  3

 72
    65
 73
     0
 40
0.0
  0
LTYPE
  5
20
330
1E
100
AcDbSymbolTableRecord
100
AcDbLinetypeTableRecord
  2
BYLAYER
 70
     0
  3

 72
    65
 73
     0
 40
0.0
  0
LTYPE
  5
C
330
1E
100
AcDbSymbolTableRecord
100
AcDbLinetypeTableRecord
  2
CONTINUOUS
 70
     0
  3
Solid line
 72
    65
 73
     0
 40
0.0
  0
ENDTAB
  0
TABLE
  2
LAYER
  5
17
102
{ACAD_XDICTIONARY
360
18
102
}
330
0
100
AcDbSymbolTable
 70
     2
  0
LAYER
  5
7
330
17
100
AcDbSymbolTableRecord
100
AcDbLayerTableRecord
  2
0
 70
     0
 62
     7
  6
CONTINUOUS
  0
LAYER
  5
39
330
17
100
AcDbSymbolTableRecord
100
AcDbLayerTableRecord
  2
OUTLINE
 70
     0
 62
     7
  6
CONTINUOUS
1001
ACAECLAYERSTANDARD
1000

1000

  0
ENDTAB
  0
TABLE
  2
STYLE
  5
1B
330
0
100
AcDbSymbolTable
 70
     2
  0
STYLE
  5
1C
330
1B
100
AcDbSymbolTableRecord
100
AcDbTextStyleTableRecord
  2
STANDARD
 70
     0
 40
0.0
 41
1.0
 50
0.0
 71
     0
 42
0.2
  3
romans.shx
  4
bigfont.shx
  0
STYLE
  5
35
330
1B
100
AcDbSymbolTableRecord
100
AcDbTextStyleTableRecord
  2
ｽﾀｲﾙ1
 70
     0
 40
0.0
 41
0.9
 50
0.0
 71
     0
 42
0.2
  3
MS PGothic.ttf
  4

1001
ACAD
1000
MS PGothic
1071
    32818
  0
ENDTAB
  0
TABLE
  2
VIEW
  5
21
330
0
100
AcDbSymbolTable
 70
     0
  0
ENDTAB
  0
TABLE
  2
UCS
  5
22
330
0
100
AcDbSymbolTable
 70
     0
  0
ENDTAB
  0
TABLE
  2
APPID
  5
25
330
0
100
AcDbSymbolTable
 70
     3
  0
APPID
  5
B
330
25
100
AcDbSymbolTableRecord
100
AcDbRegAppTableRecord
  2
ACAD
 70
     0
  0
APPID
  5
3A
330
25
100
AcDbSymbolTableRecord
100
AcDbRegAppTableRecord
  2
ACAECLAYERSTANDARD
 70
     0
  0
APPID
  5
10
330
25
100
AcDbSymbolTableRecord
100
AcDbRegAppTableRecord
  2
ACAD_PSEXT
 70
     0
  0
ENDTAB
  0
TABLE
  2
DIMSTYLE
  5
26
330
0
100
AcDbSymbolTable
 70
     1
  0
DIMSTYLE
105
27
330
26
100
AcDbSymbolTableRecord
100
AcDbDimStyleTableRecord
  2
G1
 70
     0
  3

  4

  5
OPEN
  6

  7

 40
3.0
 41
2.0
 42
2.0
 43
7.0
 44
0.5
 45
0.0
 46
0.0
 47
0.0
 48
0.0
140
2.0
141
0.09
142
0.0
143
0.03937
144
1.0
145
0.0
146
1.0
147
0.8
 71
     0
 72
     0
 73
     0
 74
     0
 75
     0
 76
     0
 77
     1
 78
     8
170
     0
171
     2
172
     1
173
     0
174
     0
175
     0
176
     0
177
     0
178
     7
270
     2
271
     2
272
     2
273
     2
274
     2
340
1C
275
     0
280
     0
281
     0
282
     0
283
     1
284
     0
285
     0
286
     0
287
     3
288
     0
  0
ENDTAB
  0
TABLE
  2
BLOCK_RECORD
  5
1
330
0
100
AcDbSymbolTable
 70
     1
  0
BLOCK_RECORD
  5
2
102
{ACAD_XDICTIONARY
360
3
102
}
330
1
100
AcDbSymbolTableRecord
100
AcDbBlockTableRecord
  2
*MODEL_SPACE
  0
BLOCK_RECORD
  5
11
102
{ACAD_XDICTIONARY
360
12
102
}
330
1
100
AcDbSymbolTableRecord
100
AcDbBlockTableRecord
  2
*PAPER_SPACE
  0
BLOCK_RECORD
  5
28
330
1
100
AcDbSymbolTableRecord
100
AcDbBlockTableRecord
  2
_OPEN
  0
ENDTAB
  0
ENDSEC
  0
SECTION
  2
BLOCKS
  0
BLOCK
  5
6
330
2
100
AcDbEntity
  8
0
100
AcDbBlockBegin
  2
*MODEL_SPACE
 70
     0
 10
0.0
 20
0.0
 30
0.0
  3
*MODEL_SPACE
  1

  0
ENDBLK
  5
D
330
2
100
AcDbEntity
  8
0
100
AcDbBlockEnd
  0
BLOCK
  5
14
330
11
100
AcDbEntity
 67
     1
  8
0
100
AcDbBlockBegin
  2
*PAPER_SPACE
 70
     0
 10
0.0
 20
0.0
 30
0.0
  3
*PAPER_SPACE
  1

  0
ENDBLK
  5
15
330
11
100
AcDbEntity
 67
     1
  8
0
100
AcDbBlockEnd
  0
BLOCK
  5
29
330
28
100
AcDbEntity
  8
0
100
AcDbBlockBegin
  2
_OPEN
 70
     0
 10
0.0
 20
0.0
 30
0.0
  3
_OPEN
  1

  0
LINE
  5
2A
330
28
100
AcDbEntity
  8
0
 62
     0
100
AcDbLine
 10
-0.9659259999999999
 20
0.258819
 30
0.0
 11
0.0
 21
0.0
 31
0.0
  0
LINE
  5
2B
330
28
100
AcDbEntity
  8
0
 62
     0
100
AcDbLine
 10
0.0
 20
0.0
 30
0.0
 11
-0.9659259999999999
 21
-0.258819
 31
0.0
  0
LINE
  5
2C
330
28
100
AcDbEntity
  8
0
 62
     0
100
AcDbLine
 10
0.0
 20
0.0
 30
0.0
 11
-1.0
 21
0.0
 31
0.0
  0
ENDBLK
  5
2D
330
28
100
AcDbEntity
  8
0
100
AcDbBlockEnd
  0
ENDSEC
  0
SECTION
  2
ENTITIES
  0
LINE
  5
38
330
2
100
AcDbEntity
  8
OUTLINE
100
AcDbLine
 10
619.1535345869038
 20
712.7659747046475
 30
0.0
 11
538.6917385869038
 21
705.7692967046476
 31
0.0
  0
LINE
  5
3B
330
2
100
AcDbEntity
  8
OUTLINE
100
AcDbLine
 10
596.4604975869037
 20
708.7851197046476
 30
0.0
 11
545.1287085869038
 21
704.3214857046477
 31
0.0
  0
LINE
  5
3C
330
2
100
AcDbEntity
  8
OUTLINE
100
AcDbLine
 10
596.4604975869037
 20
687.9074527046476
 30
0.0
 11
545.1287085869038
 21
692.3710867046477
 31
0.0
  0
LINE
  5
3D
330
2
100
AcDbEntity
  8
OUTLINE
100
AcDbLine
 10
619.1535345869038
 20
683.9265977046476
 30
0.0
 11
538.6917385869038
 21
690.9232757046477
 31
0.0
  0
LWPOLYLINE
  5
3E
330
2
100
AcDbEntity
  8
OUTLINE
100
AcDbPolyline
 90
       31
 70
     0
 43
0.0
 10
540.1535345869038
 20
705.8964097046477
 10
537.2814465869038
 20
705.3930677046476
 10
536.1624335869038
 20
704.8897267046477
 10
535.3535345869038
 20
704.3863847046476
 10
534.7145805869038
 20
703.8830437046477
 10
534.1906865869039
 20
703.3797017046476
 10
533.7535345869038
 20
702.8763597046475
 10
533.3862935869039
 20
702.3730187046476
 10
533.0780685869036
 20
701.8696767046476
 10
532.8214135869038
 20
701.3663357046477
 10
532.6110625869038
 20
700.8629937046475
 10
532.4432245869038
 20
700.3596527046474
 10
532.3151675869038
 20
699.8563107046476
 10
532.2249645869038
 20
699.3529697046476
 10
532.1713325869039
 20
698.8496277046476
 10
532.1535345869038
 20
698.3462867046474
 10
532.1713325869039
 20
697.8429447046477
 10
532.2249645869038
 20
697.3396037046476
 10
532.3151675869038
 20
696.8362617046476
 10
532.4432245869038
 20
696.3329207046475
 10
532.6110625869038
 20
695.8295787046474
 10
532.8214135869038
 20
695.3262367046477
 10
533.0780685869036
 20
694.8228957046476
 10
533.3862935869039
 20
694.3195537046475
 10
533.7535345869038
 20
693.8162127046475
 10
534.1906865869039
 20
693.3128707046477
 10
534.7145805869038
 20
692.8095297046477
 10
535.3535345869038
 20
692.3061877046475
 10
536.1624335869038
 20
691.8028467046475
 10
537.2814465869038
 20
691.2995047046475
 10
540.1535345869038
 20
690.7961637046477
  0
LWPOLYLINE
  5
3F
330
2
100
AcDbEntity
  8
OUTLINE
100
AcDbPolyline
 90
       25
 70
     0
 43
0.0
 10
546.1535345869036
 20
704.4106017046476
 10
545.6535345869037
 20
704.3895077046474
 10
545.1535345869038
 20
704.3257817046476
 10
544.6535345869038
 20
704.2180337046477
 10
544.1535345869038
 20
704.0637777046477
 10
543.6535345869038
 20
703.8591087046476
 10
543.1535345869036
 20
703.5981367046475
 10
542.6535345869036
 20
703.2719227046476
 10
542.1535345869036
 20
702.8663597046477
 10
541.6535345869037
 20
702.3574537046474
 10
541.1535345869038
 20
701.6984627046475
 10
540.6535345869038
 20
700.7699057046477
 10
540.1535345869038
 20
698.3462867046474
 10
540.6535345869038
 20
695.9226667046475
 10
541.1535345869038
 20
694.9941097046477
 10
541.6535345869037
 20
694.3351187046475
 10
542.1535345869036
 20
693.8262127046475
 10
542.6535345869036
 20
693.4206507046475
 10
543.1535345869036
 20
693.0944357046477
 10
543.6535345869038
 20
692.8334647046476
 10
544.1535345869038
 20
692.6287957046477
 10
544.6535345869038
 20
692.4745387046477
 10
545.1535345869038
 20
692.3667917046475
 10
545.6535345869037
 20
692.3030647046476
 10
546.1535345869036
 20
692.2819717046477
  0
LINE
  5
40
330
2
100
AcDbEntity
  8
OUTLINE
100
AcDbLine
 10
607.1535345869038
 20
700.8151947046476
 30
0.0
 11
607.1535345869038
 21
695.8773777046476
 31
0.0
  0
LINE
  5
41
330
2
100
AcDbEntity
  8
OUTLINE
100
AcDbLine
 10
605.1535345869037
 20
700.8151947046476
 30
0.0
 11
605.1535345869037
 21
695.8773777046476
 31
0.0
  0
ARC
  5
42
330
2
100
AcDbEntity
  8
OUTLINE
100
AcDbCircle
 10
597.1535345869037
 20
700.8151947046476
 30
0.0
 40
8.0
100
AcDbArc
 50
0.0
 51
94.969741
  0
ARC
  5
43
330
2
100
AcDbEntity
  8
OUTLINE
100
AcDbCircle
 10
597.1535345869037
 20
695.8773777046476
 30
0.0
 40
8.0
100
AcDbArc
 50
265.0302589999999
 51
0.0
  0
ARC
  5
44
330
2
100
AcDbEntity
  8
OUTLINE
100
AcDbCircle
 10
597.1535345869037
 20
700.8151947046476
 30
0.0
 40
10.0
100
AcDbArc
 50
0.0
 51
94.969741
  0
ARC
  5
45
330
2
100
AcDbEntity
  8
OUTLINE
100
AcDbCircle
 10
597.1535345869037
 20
695.8773777046476
 30
0.0
 40
10.0
100
AcDbArc
 50
265.0302589999999
 51
0.0
  0
LWPOLYLINE
  5
46
330
2
100
AcDbEntity
  8
OUTLINE
100
AcDbPolyline
 90
       58
 70
     0
 43
0.0
 10
619.1535345869038
 20
683.9265977046476
 10
619.1535345869038
 20
683.9265977046476
 10
627.0994615869039
 20
684.4415867046476
 10
630.2881475869037
 20
684.9565757046475
 10
632.6637355869037
 20
685.4715647046475
 10
634.6058975869038
 20
685.9865537046475
 10
636.2628775869039
 20
686.5015427046476
 10
637.7112225869037
 20
687.0165317046476
 10
638.9966695869039
 20
687.5315207046476
 10
640.1491615869038
 20
688.0465087046474
 10
641.1895675869039
 20
688.5614977046476
 10
642.1331175869038
 20
689.0764867046475
 10
642.9913155869037
 20
689.5914757046475
 10
643.7730885869037
 20
690.1064647046475
 10
644.4855145869037
 20
690.6214537046476
 10
645.1342965869038
 20
691.1364427046477
 10
645.7240995869039
 20
691.6514307046476
 10
646.2587715869037
 20
692.1664197046476
 10
646.7415205869038
 20
692.6814087046475
 10
647.1750285869037
 20
693.1963977046477
 10
647.5615495869037
 20
693.7113867046475
 10
647.9029805869038
 20
694.2263757046474
 10
648.2009095869037
 20
694.7413647046476
 10
648.4566655869038
 20
695.2563527046477
 10
648.6713435869037
 20
695.7713417046476
 10
648.8458345869037
 20
696.2863307046476
 10
648.9808435869037
 20
696.8013197046475
 10
649.0769065869037
 20
697.3163087046475
 10
649.1343965869037
 20
697.8312977046477
 10
649.1535345869038
 20
698.3462867046474
 10
649.1343965869037
 20
698.8612757046475
 10
649.0769065869037
 20
699.3762637046477
 10
648.9808435869037
 20
699.8912527046476
 10
648.8458345869037
 20
700.4062417046475
 10
648.6713435869037
 20
700.9212307046476
 10
648.4566655869038
 20
701.4362197046475
 10
648.2009095869037
 20
701.9512087046475
 10
647.9029805869038
 20
702.4661977046474
 10
647.5615495869037
 20
702.9811857046476
 10
647.1750285869037
 20
703.4961747046477
 10
646.7415205869038
 20
704.0111637046476
 10
646.2587715869037
 20
704.5261527046476
 10
645.7240995869039
 20
705.0411417046476
 10
645.1342965869038
 20
705.5561307046477
 10
644.4855145869037
 20
706.0711197046475
 10
643.7730885869037
 20
706.5861087046474
 10
642.9913155869037
 20
707.1010967046476
 10
642.1331175869038
 20
707.6160857046477
 10
641.1895675869039
 20
708.1310747046476
 10
640.1491615869038
 20
708.6460637046476
 10
638.9966695869039
 20
709.1610527046476
 10
637.7112225869037
 20
709.6760417046475
 10
636.2628775869039
 20
710.1910307046477
 10
634.6058975869038
 20
710.7060187046474
 10
632.6637355869037
 20
711.2210077046476
 10
630.2881475869037
 20
711.7359967046476
 10
627.0994615869039
 20
712.2509857046476
 10
619.1535345869038
 20
712.7659747046475
  0
CIRCLE
  5
47
330
2
100
AcDbEntity
  8
OUTLINE
100
AcDbCircle
 10
628.1535345869038
 20
698.3462867046474
 30
0.0
 40
8.0
  0
ARC
  5
48
330
2
100
AcDbEntity
  8
OUTLINE
100
AcDbCircle
 10
637.1535345869038
 20
698.3462867046474
 30
0.0
 40
26.0
100
AcDbArc
 50
212.8002239999999
 51
147.199776
  0
LINE
  5
49
330
2
100
AcDbEntity
  8
OUTLINE
100
AcDbLine
 10
615.1535345869038
 20
695.3462867046474
 30
0.0
 11
615.1535345869038
 21
689.8462867046474
 31
0.0
  0
LINE
  5
4A
330
2
100
AcDbEntity
  8
OUTLINE
100
AcDbLine
 10
615.1535345869038
 20
695.3462867046474
 30
0.0
 11
612.1535345869038
 21
695.3462867046474
 31
0.0
  0
LINE
  5
4B
330
2
100
AcDbEntity
  8
OUTLINE
100
AcDbLine
 10
613.6535345869037
 20
688.3462867046477
 30
0.0
 11
613.6535345869037
 21
688.3462867046477
 31
0.0
  0
LINE
  5
4C
330
2
100
AcDbEntity
  8
OUTLINE
100
AcDbLine
 10
612.1535345869038
 20
695.3462867046474
 30
0.0
 11
612.1535345869038
 21
689.8462867046474
 31
0.0
  0
ARC
  5
4D
330
2
100
AcDbEntity
  8
OUTLINE
100
AcDbCircle
 10
613.6535345869037
 20
689.8462867046474
 30
0.0
 40
1.5
100
AcDbArc
 50
270.0
 51
0.0
  0
ARC
  5
4E
330
2
100
AcDbEntity
  8
OUTLINE
100
AcDbCircle
 10
613.6535345869037
 20
689.8462867046474
 30
0.0
 40
1.5
100
AcDbArc
 50
180.0
 51
270.0
  0
LINE
  5
4F
330
2
100
AcDbEntity
  8
OUTLINE
100
AcDbLine
 10
615.1535345869038
 20
701.3462867046476
 30
0.0
 11
615.1535345869038
 21
706.8462867046474
 31
0.0
  0
LINE
  5
50
330
2
100
AcDbEntity
  8
OUTLINE
100
AcDbLine
 10
615.1535345869038
 20
701.3462867046476
 30
0.0
 11
612.1535345869038
 21
701.3462867046476
 31
0.0
  0
LINE
  5
51
330
2
100
AcDbEntity
  8
OUTLINE
100
AcDbLine
 10
613.6535345869037
 20
708.3462867046477
 30
0.0
 11
613.6535345869037
 21
708.3462867046477
 31
0.0
  0
LINE
  5
52
330
2
100
AcDbEntity
  8
OUTLINE
100
AcDbLine
 10
612.1535345869038
 20
701.3462867046476
 30
0.0
 11
612.1535345869038
 21
706.8462867046474
 31
0.0
  0
ARC
  5
53
330
2
100
AcDbEntity
  8
OUTLINE
100
AcDbCircle
 10
613.6535345869037
 20
706.8462867046474
 30
0.0
 40
1.5
100
AcDbArc
 50
0.0
 51
90.0
  0
ARC
  5
54
330
2
100
AcDbEntity
  8
OUTLINE
100
AcDbCircle
 10
613.6535345869037
 20
706.8462867046474
 30
0.0
 40
1.5
100
AcDbArc
 50
90.0
 51
180.0
  0
LWPOLYLINE
  5
55
330
2
100
AcDbEntity
  8
OUTLINE
 62
     7
100
AcDbPolyline
 90
       15
 70
     0
 43
0.0
 10
351.6352925869038
 20
698.3462867046474
 10
352.1007895869038
 20
692.9631937046476
 10
353.4831385869038
 20
687.7436627046477
 10
355.7403355869038
 20
682.8462867046474
 10
358.8037985869038
 20
678.4198707046475
 10
362.5804455869038
 20
674.5989087046475
 10
366.9555235869038
 20
671.4994997046475
 10
371.7960995869038
 20
669.2158157046475
 10
376.9550945869038
 20
667.8172467046476
 10
382.2757545869038
 20
667.3462867046476
 10
387.5964155869038
 20
667.8172467046476
 10
392.7554105869038
 20
669.2158157046475
 10
397.5959865869038
 20
671.4994997046475
 10
401.9710645869038
 20
674.5989087046475
 10
403.1501765869038
 20
675.6532817046476
  0
LWPOLYLINE
  5
56
330
2
100
AcDbEntity
  8
OUTLINE
 62
     7
100
AcDbPolyline
 90
       15
 70
     0
 43
0.0
 10
403.1501765869038
 20
721.0392917046475
 10
398.9381515869038
 20
724.3618727046476
 10
394.2198475869038
 20
726.8939837046475
 10
389.1386285869038
 20
728.5586877046474
 10
383.8488845869038
 20
729.3054027046475
 10
378.5113425869038
 20
729.1114407046476
 10
373.2881795869038
 20
727.9826947046476
 10
368.3380995869038
 20
725.9534617046475
 10
363.8115075869038
 20
723.0853987046477
 10
359.8459435869038
 20
719.4656507046476
 10
356.5618975869038
 20
715.2042017046476
 10
354.0591535869038
 20
710.4305327046477
 10
352.4137575869038
 20
705.2896907046475
 10
351.6757025869038
 20
699.9378757046477
 10
351.6352925869038
 20
698.3462867046474
  0
LWPOLYLINE
  5
57
330
2
100
AcDbEntity
  8
OUTLINE
 62
     7
100
AcDbPolyline
 90
       19
 70
     0
 43
0.0
 10
444.1557205869038
 20
683.3462867046476
 10
445.7050685869038
 20
683.5741707046476
 10
447.2073415869038
 20
684.2508977046476
 10
448.6168915869038
 20
685.3559057046476
 10
449.8908915869038
 20
686.8556197046475
 10
450.9906305869038
 20
688.7044727046476
 10
451.8826955869037
 20
690.8462867046474
 10
452.5399795869038
 20
693.2159847046476
 10
452.9425115869038
 20
695.7415637046477
 10
453.0780625869038
 20
698.3462867046474
 10
452.9425115869038
 20
700.9510097046477
 10
452.5399795869038
 20
703.4765887046477
 10
451.8826955869037
 20
705.8462867046475
 10
450.9906305869038
 20
707.9881007046475
 10
449.8908915869038
 20
709.8369537046477
 10
448.6168915869038
 20
711.3366677046476
 10
447.2073415869038
 20
712.4416757046475
 10
445.7050685869038
 20
713.1184027046475
 10
444.1557205869038
 20
713.3462867046477
  0
LWPOLYLINE
  5
58
330
2
100
AcDbEntity
  8
OUTLINE
 62
     7
100
AcDbPolyline
 90
       19
 70
     0
 43
0.0
 10
456.2135735869039
 20
683.3462867046476
 10
457.7629215869038
 20
683.5741707046476
 10
459.2651945869038
 20
684.2508977046476
 10
460.6747445869038
 20
685.3559057046476
 10
461.9487445869038
 20
686.8556197046475
 10
463.0484835869038
 20
688.7044727046476
 10
463.9405485869038
 20
690.8462867046474
 10
464.5978325869038
 20
693.2159847046476
 10
465.0003645869039
 20
695.7415637046477
 10
465.1359155869037
 20
698.3462867046474
 10
465.0003645869039
 20
700.9510097046477
 10
464.5978325869038
 20
703.4765887046477
 10
463.9405485869038
 20
705.8462867046475
 10
463.0484835869038
 20
707.9881007046475
 10
461.9487445869038
 20
709.8369537046477
 10
460.6747445869038
 20
711.3366677046476
 10
459.2651945869038
 20
712.4416757046475
 10
457.7629215869038
 20
713.1184027046475
 10
456.2135735869039
 20
713.3462867046477
  0
LINE
  5
59
330
2
100
AcDbEntity
  8
OUTLINE
 62
     7
100
AcDbLine
 10
456.2135735869039
 20
713.3462867046477
 30
0.0
 11
423.2100365869038
 21
713.3462867046477
 31
0.0
  0
LINE
  5
5A
330
2
100
AcDbEntity
  8
OUTLINE
 62
     7
100
AcDbLine
 10
450.2861965869038
 20
709.8462867046475
 30
0.0
 11
461.5401935869038
 21
709.8462867046475
 31
0.0
  0
LINE
  5
5B
330
2
100
AcDbEntity
  8
OUTLINE
 62
     7
100
AcDbLine
 10
460.2628915869038
 20
711.3462867046474
 30
0.0
 11
449.0088955869039
 21
711.3462867046474
 31
0.0
  0
LINE
  5
5C
330
2
100
AcDbEntity
  8
OUTLINE
 62
     7
100
AcDbLine
 10
447.7608675869038
 20
712.3462867046477
 30
0.0
 11
459.0148635869038
 21
712.3462867046477
 31
0.0
  0
ARC
  5
5D
330
2
100
AcDbEntity
  8
OUTLINE
 62
     7
100
AcDbCircle
 10
423.2100365869038
 20
743.3462867046475
 30
0.0
 40
30.0
100
AcDbArc
 50
226.7068180000007
 51
270.0
  0
LINE
  5
5E
330
2
100
AcDbEntity
  8
OUTLINE
 62
     7
100
AcDbLine
 10
456.2135735869039
 20
683.3462867046476
 30
0.0
 11
423.2100365869038
 21
683.3462867046476
 31
0.0
  0
LINE
  5
5F
330
2
100
AcDbEntity
  8
OUTLINE
 62
     7
100
AcDbLine
 10
464.6543215869038
 20
700.3462867046477
 30
0.0
 11
453.4799905869038
 21
700.3462867046477
 31
0.0
  0
LINE
  5
60
330
2
100
AcDbEntity
  8
OUTLINE
 62
     7
100
AcDbLine
 10
453.1569025869038
 20
702.3462867046474
 30
0.0
 11
464.4108985869038
 21
702.3462867046474
 31
0.0
  0
LINE
  5
61
330
2
100
AcDbEntity
  8
OUTLINE
 62
     7
100
AcDbLine
 10
463.9891065869038
 20
704.3462867046477
 30
0.0
 11
452.7351105869038
 21
704.3462867046477
 31
0.0
  0
LINE
  5
62
330
2
100
AcDbEntity
  8
OUTLINE
 62
     7
100
AcDbLine
 10
452.1051045869038
 20
706.3462867046474
 30
0.0
 11
463.3591005869038
 21
706.3462867046474
 31
0.0
  0
LINE
  5
63
330
2
100
AcDbEntity
  8
OUTLINE
 62
     7
100
AcDbLine
 10
462.4619655869038
 20
708.3462867046477
 30
0.0
 11
451.2079695869038
 21
708.3462867046477
 31
0.0
  0
LINE
  5
64
330
2
100
AcDbEntity
  8
OUTLINE
 62
     7
100
AcDbLine
 10
453.4799905869038
 20
698.3462867046474
 30
0.0
 11
464.7339865869038
 21
698.3462867046474
 31
0.0
  0
LINE
  5
65
330
2
100
AcDbEntity
  8
OUTLINE
 62
     7
100
AcDbLine
 10
464.6543215869038
 20
696.3462867046477
 30
0.0
 11
453.4799905869038
 21
696.3462867046477
 31
0.0
  0
LINE
  5
66
330
2
100
AcDbEntity
  8
OUTLINE
 62
     7
100
AcDbLine
 10
453.1569025869038
 20
694.3462867046474
 30
0.0
 11
464.4108985869038
 21
694.3462867046474
 31
0.0
  0
LINE
  5
67
330
2
100
AcDbEntity
  8
OUTLINE
 62
     7
100
AcDbLine
 10
463.9891065869038
 20
692.3462867046477
 30
0.0
 11
452.7351105869038
 21
692.3462867046477
 31
0.0
  0
LINE
  5
68
330
2
100
AcDbEntity
  8
OUTLINE
 62
     7
100
AcDbLine
 10
452.1051045869038
 20
690.3462867046474
 30
0.0
 11
463.3591005869038
 21
690.3462867046474
 31
0.0
  0
LINE
  5
69
330
2
100
AcDbEntity
  8
OUTLINE
 62
     7
100
AcDbLine
 10
462.4619655869038
 20
688.3462867046477
 30
0.0
 11
451.2079695869038
 21
688.3462867046477
 31
0.0
  0
LINE
  5
6A
330
2
100
AcDbEntity
  8
OUTLINE
 62
     7
100
AcDbLine
 10
450.2861965869038
 20
686.8462867046474
 30
0.0
 11
461.5401935869038
 21
686.8462867046474
 31
0.0
  0
LINE
  5
6B
330
2
100
AcDbEntity
  8
OUTLINE
 62
     7
100
AcDbLine
 10
460.2628915869038
 20
685.3462867046475
 30
0.0
 11
449.0088955869039
 21
685.3462867046475
 31
0.0
  0
LINE
  5
6C
330
2
100
AcDbEntity
  8
OUTLINE
 62
     7
100
AcDbLine
 10
447.7608675869038
 20
684.3462867046476
 30
0.0
 11
459.0148635869038
 21
684.3462867046476
 31
0.0
  0
ARC
  5
6D
330
2
100
AcDbEntity
  8
OUTLINE
 62
     7
100
AcDbCircle
 10
423.2100365869038
 20
653.3462867046474
 30
0.0
 40
30.0
100
AcDbArc
 50
90.0
 51
131.96388
  0
ARC
  5
6E
330
2
100
AcDbEntity
  8
OUTLINE
 62
     7
100
AcDbCircle
 10
388.3301795869038
 20
698.3462867046474
 30
0.0
 40
28.008745
100
AcDbArc
 50
154.6315520000016
 51
159.8999860000024
  0
ARC
  5
6F
330
2
100
AcDbEntity
  8
OUTLINE
 62
     7
100
AcDbCircle
 10
388.3301795869038
 20
698.3462867046474
 30
0.0
 40
20.75294899999998
100
AcDbArc
 50
144.6737779999993
 51
180.0
  0
ARC
  5
70
330
2
100
AcDbEntity
  8
OUTLINE
 62
     7
100
AcDbCircle
 10
401.4478295869038
 20
677.2142627046474
 30
0.0
 40
50.0
100
AcDbArc
 50
137.670011000001
 51
145.8279809999998
  0
LWPOLYLINE
  5
71
330
2
100
AcDbEntity
  8
OUTLINE
 62
     7
100
AcDbPolyline
 90
      121
 70
     0
 43
0.0
 10
371.3984075869038
 20
710.3462867046475
 10
371.4878055869038
 20
710.4305587046475
 10
371.5770395869038
 20
710.5149217046475
 10
371.6659455869038
 20
710.5994627046476
 10
371.7543605869038
 20
710.6842737046474
 10
371.8421185869038
 20
710.7694427046476
 10
371.9290575869038
 20
710.8550607046477
 10
372.0150125869038
 20
710.9412167046476
 10
372.0998205869038
 20
711.0280017046476
 10
372.1833165869038
 20
711.1155037046477
 10
372.2653375869038
 20
711.2038127046474
 10
372.3457185869038
 20
711.2930197046475
 10
372.4242975869038
 20
711.3832127046475
 10
372.5009085869038
 20
711.4744827046474
 10
372.5753885869038
 20
711.5669187046477
 10
372.6475735869038
 20
711.6606117046476
 10
372.7172995869038
 20
711.7556497046475
 10
372.7844025869038
 20
711.8521237046476
 10
372.8487185869038
 20
711.9501227046477
 10
372.9100845869038
 20
712.0497357046477
 10
372.9683345869038
 20
712.1510547046475
 10
373.0233075869038
 20
712.2541677046476
 10
373.0748365869038
 20
712.3591637046477
 10
373.1227605869038
 20
712.4661347046476
 10
373.1669135869038
 20
712.5751687046474
 10
373.2071315869038
 20
712.6863567046476
 10
373.2432525869038
 20
712.7997867046476
 10
373.2751105869038
 20
712.9155497046475
 10
373.3025425869038
 20
713.0337357046474
 10
373.3253845869038
 20
713.1544327046476
 10
373.3434725869038
 20
713.2777327046476
 10
373.3566745869038
 20
713.4036517046476
 10
373.3649885869038
 20
713.5319237046476
 10
373.3684425869038
 20
713.6622097046476
 10
373.3670665869038
 20
713.7941707046476
 10
373.3608895869038
 20
713.9274677046477
 10
373.3499405869038
 20
714.0617617046475
 10
373.3342485869038
 20
714.1967137046476
 10
373.3138435869038
 20
714.3319857046476
 10
373.2887545869038
 20
714.4672387046476
 10
373.2590105869038
 20
714.6021327046477
 10
373.2246405869038
 20
714.7363297046475
 10
373.1856745869038
 20
714.8694907046476
 10
373.1421415869038
 20
715.0012777046477
 10
373.0940695869038
 20
715.1313507046475
 10
373.0414895869038
 20
715.2593707046477
 10
372.9844295869038
 20
715.3849997046477
 10
372.9229195869038
 20
715.5078987046477
 10
372.8569885869038
 20
715.6277277046476
 10
372.7866645869038
 20
715.7441497046477
 10
372.7119785869038
 20
715.8568247046474
 10
372.6329595869038
 20
715.9654137046476
 10
372.5496365869038
 20
716.0695787046477
 10
372.4620375869038
 20
716.1689807046476
 10
372.3701935869038
 20
716.2632797046476
 10
372.2741325869038
 20
716.3521377046476
 10
372.1738845869038
 20
716.4352167046477
 10
372.0694785869038
 20
716.5121757046477
 10
371.9609435869038
 20
716.5826777046476
 10
371.8483085869038
 20
716.6463837046476
 10
371.7316035869038
 20
716.7029537046476
 10
371.6108835869038
 20
716.7521237046477
 10
371.4863115869038
 20
716.7939227046477
 10
371.3580735869038
 20
716.8284557046477
 10
371.2263595869038
 20
716.8558257046477
 10
371.0913575869038
 20
716.8761367046474
 10
370.9532545869038
 20
716.8894917046476
 10
370.8122405869038
 20
716.8959957046475
 10
370.6685025869038
 20
716.8957517046476
 10
370.5222295869038
 20
716.8888647046476
 10
370.3736095869038
 20
716.8754367046476
 10
370.2228305869038
 20
716.8555727046476
 10
370.0700815869038
 20
716.8293767046476
 10
369.9155495869038
 20
716.7969507046475
 10
369.7594235869038
 20
716.7584007046476
 10
369.6018915869038
 20
716.7138297046475
 10
369.4431425869038
 20
716.6633417046475
 10
369.2833635869038
 20
716.6070397046476
 10
369.1227445869038
 20
716.5450277046476
 10
368.9614715869038
 20
716.4774097046477
 10
368.7997345869038
 20
716.4042897046477
 10
368.6377205869038
 20
716.3257717046475
 10
368.4756195869038
 20
716.2419587046477
 10
368.3136175869038
 20
716.1529557046476
 10
368.1519045869038
 20
716.0588657046474
 10
367.9906675869038
 20
715.9597917046474
 10
367.8300955869038
 20
715.8558387046476
 10
367.6703775869038
 20
715.7471107046476
 10
367.5116995869038
 20
715.6337107046477
 10
367.3542525869038
 20
715.5157427046476
 10
367.1982225869038
 20
715.3933107046476
 10
367.0437575869038
 20
715.2665247046476
 10
366.8908465869038
 20
715.1355237046476
 10
366.7394335869038
 20
715.0004537046477
 10
366.5894665869038
 20
714.8614587046474
 10
366.4408905869038
 20
714.7186847046476
 10
366.2936535869038
 20
714.5722767046477
 10
366.1477015869038
 20
714.4223807046476
 10
366.0029805869038
 20
714.2691407046477
 10
365.8594365869038
 20
714.1127047046476
 10
365.7170175869038
 20
713.9532157046476
 10
365.5756695869038
 20
713.7908187046477
 10
365.4353375869038
 20
713.6256617046476
 10
365.2959705869038
 20
713.4578877046475
 10
365.1575125869038
 20
713.2876427046475
 10
365.0199115869038
 20
713.1150717046475
 10
364.8831135869038
 20
712.9403217046475
 10
364.7470645869038
 20
712.7635357046476
 10
364.6117125869038
 20
712.5848607046476
 10
364.4770025869038
 20
712.4044417046476
 10
364.3428805869038
 20
712.2224237046476
 10
364.2092945869038
 20
712.0389527046476
 10
364.0761905869038
 20
711.8541727046476
 10
363.9435145869038
 20
711.6682307046477
 10
363.8112135869038
 20
711.4812707046477
 10
363.6792345869038
 20
711.2934387046476
 10
363.5475215869038
 20
711.1048807046477
 10
363.4160245869038
 20
710.9157407046476
 10
363.2846865869038
 20
710.7261647046477
 10
363.1534565869038
 20
710.5362987046476
 10
363.0222795869038
 20
710.3462867046475
  0
ARC
  5
72
330
2
100
AcDbEntity
  8
OUTLINE
 62
     7
100
AcDbCircle
 10
378.4439045869038
 20
698.7447147046476
 30
0.0
 40
18.5
100
AcDbArc
 50
109.0584839999977
 51
138.9900150000012
  0
LWPOLYLINE
  5
73
330
2
100
AcDbEntity
  8
OUTLINE
 62
     7
100
AcDbPolyline
 90
      121
 70
     0
 43
0.0
 10
373.1241305869038
 20
684.2232217046475
 10
373.1347055869038
 20
684.1980617046475
 10
373.1450735869038
 20
684.1727887046475
 10
373.1552345869038
 20
684.1474027046476
 10
373.1651855869038
 20
684.1219007046476
 10
373.1749245869038
 20
684.0962837046475
 10
373.1844485869038
 20
684.0705487046476
 10
373.1937575869038
 20
684.0446957046475
 10
373.2028475869038
 20
684.0187237046476
 10
373.2117175869038
 20
683.9926307046477
 10
373.2203655869038
 20
683.9664157046476
 10
373.2287895869038
 20
683.9400787046476
 10
373.2369865869038
 20
683.9136167046476
 10
373.2449545869038
 20
683.8870307046476
 10
373.2526925869038
 20
683.8603177046476
 10
373.2601985869038
 20
683.8334787046476
 10
373.2674695869038
 20
683.8065097046476
 10
373.2745035869038
 20
683.7794127046476
 10
373.2812985869038
 20
683.7521837046475
 10
373.2878535869038
 20
683.7248237046476
 10
373.2941645869038
 20
683.6973307046477
 10
373.3002315869038
 20
683.6697037046477
 10
373.3060515869038
 20
683.6419407046474
 10
373.3116225869038
 20
683.6140427046475
 10
373.3169425869038
 20
683.5860067046476
 10
373.3220085869038
 20
683.5578317046476
 10
373.3268205869038
 20
683.5295177046475
 10
373.3313745869038
 20
683.5010627046475
 10
373.3356695869038
 20
683.4724657046475
 10
373.3397025869038
 20
683.4437257046475
 10
373.3434725869038
 20
683.4148407046476
 10
373.3566745869038
 20
683.2889217046475
 10
373.3649885869038
 20
683.1606497046475
 10
373.3684425869038
 20
683.0303637046475
 10
373.3670665869038
 20
682.8984027046476
 10
373.3608895869038
 20
682.7651057046478
 10
373.3499405869038
 20
682.6308117046476
 10
373.3342485869038
 20
682.4958597046475
 10
373.3138435869038
 20
682.3605877046476
 10
373.2887545869038
 20
682.2253347046475
 10
373.2590105869038
 20
682.0904407046476
 10
373.2246405869038
 20
681.9562437046474
 10
373.1856745869038
 20
681.8230827046476
 10
373.1421415869038
 20
681.6912957046476
 10
373.0940695869038
 20
681.5612237046475
 10
373.0414895869038
 20
681.4332027046475
 10
372.9844295869038
 20
681.3075737046475
 10
372.9229195869038
 20
681.1846757046476
 10
372.8569885869038
 20
681.0648457046474
 10
372.7866645869038
 20
680.9484237046476
 10
372.7119785869038
 20
680.8357487046476
 10
372.6329595869038
 20
680.7271597046476
 10
372.5496365869038
 20
680.6229947046475
 10
372.4620375869038
 20
680.5235927046476
 10
372.3701935869038
 20
680.4292937046476
 10
372.2741325869038
 20
680.3404357046475
 10
372.1738845869038
 20
680.2573567046476
 10
372.0694785869038
 20
680.1803977046476
 10
371.9609435869038
 20
680.1098957046475
 10
371.8483085869038
 20
680.0461897046476
 10
371.7316035869038
 20
679.9896197046475
 10
371.6108835869038
 20
679.9404497046475
 10
371.4863115869038
 20
679.8986507046476
 10
371.3580735869038
 20
679.8641177046476
 10
371.2263595869038
 20
679.8367477046475
 10
371.0913575869038
 20
679.8164367046475
 10
370.9532545869038
 20
679.8030817046476
 10
370.8122405869038
 20
679.7965777046475
 10
370.6685025869038
 20
679.7968217046475
 10
370.5222295869038
 20
679.8037087046475
 10
370.3736095869038
 20
679.8171367046476
 10
370.2228305869038
 20
679.8370007046476
 10
370.0700815869038
 20
679.8631977046476
 10
369.9155495869038
 20
679.8956227046476
 10
369.7594235869038
 20
679.9341727046476
 10
369.6018915869038
 20
679.9787437046476
 10
369.4431425869038
 20
680.0292327046475
 10
369.2833635869038
 20
680.0855347046478
 10
369.1227445869038
 20
680.1475457046475
 10
368.9614715869038
 20
680.2151637046478
 10
368.7997345869038
 20
680.2882837046476
 10
368.6377205869038
 20
680.3668017046476
 10
368.4756195869038
 20
680.4506147046476
 10
368.3136175869038
 20
680.5396177046476
 10
368.1519045869038
 20
680.6337077046475
 10
367.9906675869038
 20
680.7327817046475
 10
367.8300955869038
 20
680.8367347046476
 10
367.6703775869038
 20
680.9454627046476
 10
367.5116995869038
 20
681.0588627046476
 10
367.3542525869038
 20
681.1768307046476
 10
367.1982225869038
 20
681.2992627046476
 10
367.0437575869038
 20
681.4260487046475
 10
366.8908465869038
 20
681.5570497046476
 10
366.7394335869038
 20
681.6921197046475
 10
366.5894665869038
 20
681.8311147046475
 10
366.4408905869038
 20
681.9738897046476
 10
366.2936535869038
 20
682.1202967046475
 10
366.1477015869038
 20
682.2701927046478
 10
366.0029805869038
 20
682.4234327046475
 10
365.8594365869038
 20
682.5798687046476
 10
365.7170175869038
 20
682.7393587046475
 10
365.5756695869038
 20
682.9017547046476
 10
365.4353375869038
 20
683.0669117046475
 10
365.2959705869038
 20
683.2346857046476
 10
365.1575125869038
 20
683.4049307046476
 10
365.0199115869038
 20
683.5775017046476
 10
364.8831135869038
 20
683.7522517046476
 10
364.7470645869038
 20
683.9290377046475
 10
364.6117125869038
 20
684.1077127046474
 10
364.4770025869038
 20
684.2881317046476
 10
364.3428805869038
 20
684.4701497046476
 10
364.2092945869038
 20
684.6536207046475
 10
364.0761905869038
 20
684.8384007046476
 10
363.9435145869038
 20
685.0243427046478
 10
363.8112135869038
 20
685.2113027046478
 10
363.6792345869038
 20
685.3991347046476
 10
363.5475215869038
 20
685.5876927046478
 10
363.4160245869038
 20
685.7768327046476
 10
363.2846865869038
 20
685.9664087046476
 10
363.1534565869038
 20
686.1562747046475
 10
363.0222795869038
 20
686.3462867046474
  0
ARC
  5
74
330
2
100
AcDbEntity
  8
OUTLINE
 62
     7
100
AcDbCircle
 10
388.3301795869038
 20
698.3462867046474
 30
0.0
 40
20.75294899999998
100
AcDbArc
 50
180.0
 51
222.8853010000011
  0
ARC
  5
75
330
2
100
AcDbEntity
  8
OUTLINE
 62
     7
100
AcDbCircle
 10
291.6200625869038
 20
662.7811027046475
 30
0.0
 40
80.0
100
AcDbArc
 50
13.80391699999938
 51
22.49999999999975
  0
ARC
  5
76
330
2
100
AcDbEntity
  8
OUTLINE
 62
     7
100
AcDbCircle
 10
388.3301795869038
 20
698.3462867046474
 30
0.0
 40
28.008745
100
AcDbArc
 50
180.0
 51
205.3684479999982
  0
ARC
  5
77
330
2
100
AcDbEntity
  8
OUTLINE
 62
     7
100
AcDbCircle
 10
291.6200625869038
 20
662.7811027046475
 30
0.0
 40
80.0
100
AcDbArc
 50
22.49999999999975
 51
31.19608299999944
  0
ARC
  5
78
330
2
100
AcDbEntity
  8
OUTLINE
 62
     7
100
AcDbCircle
 10
388.3301795869038
 20
698.3462867046474
 30
0.0
 40
28.008745
100
AcDbArc
 50
170.2579679999989
 51
180.0
  0
ARC
  5
79
330
2
100
AcDbEntity
  8
OUTLINE
 62
     7
100
AcDbCircle
 10
360.9074365869038
 20
704.7365537046475
 30
0.0
 40
1.0
100
AcDbArc
 50
145.8279809999998
 51
211.1960829999993
  0
ARC
  5
7A
330
2
100
AcDbEntity
  8
OUTLINE
 62
     7
100
AcDbCircle
 10
379.4858075869038
 20
730.2352757046476
 30
0.0
 40
50.0
100
AcDbArc
 50
259.1720189999978
 51
262.106308000001
  0
ARC
  5
7B
330
2
100
AcDbEntity
  8
OUTLINE
 62
     7
100
AcDbCircle
 10
370.2806185869038
 20
682.1076897046475
 30
0.0
 40
1.0
100
AcDbArc
 50
193.8039169999994
 51
259.1720189999978
  0
LINE
  5
7C
330
2
100
AcDbEntity
  8
OUTLINE
 62
     7
100
AcDbLine
 10
459.4167925869038
 20
684.3462867046476
 30
0.0
 11
556.5668355869038
 21
684.3462867046476
 31
0.0
  0
LINE
  5
7D
330
2
100
AcDbEntity
  8
OUTLINE
 62
     7
100
AcDbLine
 10
556.5668355869038
 20
712.3462867046477
 30
0.0
 11
459.4167925869038
 21
712.3462867046477
 31
0.0
  0
LWPOLYLINE
  5
7E
330
2
100
AcDbEntity
  8
OUTLINE
 62
     7
100
AcDbPolyline
 90
       19
 70
     0
 43
0.0
 10
536.2974175873156
 20
710.7602657046476
 10
533.9780955873155
 20
710.4006607046476
 10
531.7616635873156
 20
709.6747897046476
 10
529.7154675873156
 20
708.6047077046474
 10
527.9016815873156
 20
707.2229287046476
 10
526.3754135873155
 20
705.5714367046475
 10
525.1830405873156
 20
703.7004137046476
 10
524.3607925873155
 20
701.6667067046475
 10
523.9336515873157
 20
699.5321117046477
 10
523.9145965873157
 20
697.3614857046476
 10
524.3042075873156
 20
695.2207817046477
 10
525.0906445873156
 20
693.1750447046475
 10
526.2500135873157
 20
691.2864337046475
 10
527.7470875873157
 20
689.6123327046476
 10
529.5363785873156
 20
688.2036087046475
 10
531.5635185873157
 20
687.1030647046476
 10
533.7669165873156
 20
686.3441407046475
 10
536.0796205873157
 20
685.9498947046476
 10
536.2974175873156
 20
685.9323077046475
  0
LINE
  5
7F
330
2
100
AcDbEntity
  8
OUTLINE
 62
     7
100
AcDbLine
 10
637.1092605873156
 20
678.0268167046475
 30
0.0
 11
536.2974175873156
 21
685.9323077046475
 31
0.0
  0
LINE
  5
80
330
2
100
AcDbEntity
  8
OUTLINE
 62
     7
100
AcDbLine
 10
637.1092605873156
 20
718.6657567046474
 30
0.0
 11
536.2974175873156
 21
710.7602657046476
 31
0.0
  0
LINE
  5
81
330
2
100
AcDbEntity
  8
OUTLINE
 62
     7
100
AcDbLine
 10
653.6535345869038
 20
662.9182219316763
 30
0.0
 11
620.6535345869037
 21
662.9182219316763
 31
0.0
  0
LINE
  5
82
330
2
100
AcDbEntity
  8
OUTLINE
 62
     7
100
AcDbLine
 10
655.1535345869037
 20
666.9182219316764
 30
0.0
 11
619.1535345869038
 21
666.9182219316764
 31
0.0
  0
LINE
  5
83
330
2
100
AcDbEntity
  8
OUTLINE
 62
     7
100
AcDbLine
 10
655.1535345869037
 20
663.4182219316763
 30
0.0
 11
619.1535345869038
 21
663.4182219316763
 31
0.0
  0
ARC
  5
84
330
2
100
AcDbEntity
  8
OUTLINE
 62
     7
100
AcDbCircle
 10
653.6535345869038
 20
661.9182219316765
 30
0.0
 40
1.0
100
AcDbArc
 50
0.0
 51
90.0
  0
LINE
  5
85
330
2
100
AcDbEntity
  8
OUTLINE
 62
     7
100
AcDbLine
 10
655.1535345869037
 20
676.2884909316765
 30
0.0
 11
655.1535345869037
 21
663.4182219316763
 31
0.0
  0
LINE
  5
86
330
2
100
AcDbEntity
  8
OUTLINE
 62
     7
100
AcDbLine
 10
655.1535345869037
 20
676.2884909316765
 30
0.0
 11
655.1535345869037
 21
669.9159079316764
 31
0.0
  0
LINE
  5
87
330
2
100
AcDbEntity
  8
OUTLINE
 62
     7
100
AcDbLine
 10
652.1535265869037
 20
663.4182219316763
 30
0.0
 11
652.1535265869037
 21
662.9182219316763
 31
0.0
  0
LINE
  5
88
330
2
100
AcDbEntity
  8
OUTLINE
 62
     7
100
AcDbLine
 10
654.6535345869037
 20
640.5077739316765
 30
0.0
 11
654.6535345869037
 21
661.9182219316765
 31
0.0
  0
LINE
  5
89
330
2
100
AcDbEntity
  8
OUTLINE
 62
     7
100
AcDbLine
 10
619.1535345869038
 20
676.2884909316765
 30
0.0
 11
619.1535345869038
 21
663.4182219316763
 31
0.0
  0
LINE
  5
8A
330
2
100
AcDbEntity
  8
OUTLINE
 62
     7
100
AcDbLine
 10
619.1535345869038
 20
676.2884909316765
 30
0.0
 11
619.1535345869038
 21
669.9159079316764
 31
0.0
  0
ARC
  5
8B
330
2
100
AcDbEntity
  8
OUTLINE
 62
     7
100
AcDbCircle
 10
609.1535345869037
 20
676.2884909316765
 30
0.0
 40
10.0
100
AcDbArc
 50
0.0
 51
25.2029061568208
  0
ARC
  5
8C
330
2
100
AcDbEntity
  8
OUTLINE
 62
     7
100
AcDbCircle
 10
665.1535345869038
 20
676.2884909316765
 30
0.0
 40
10.0
100
AcDbArc
 50
154.7970938431792
 51
180.0
  0
ARC
  5
8D
330
2
100
AcDbEntity
  8
OUTLINE
 62
     7
100
AcDbCircle
 10
637.1535345869038
 20
695.6326329316765
 30
0.0
 40
60.0
100
AcDbArc
 50
255.2627960000029
 51
284.7372039999969
  0
ARC
  5
8E
330
2
100
AcDbEntity
  8
OUTLINE
 62
     7
100
AcDbCircle
 10
637.1035345869038
 20
1038.918218931675
 30
0.0
 40
400.0
100
AcDbArc
 50
264.5617530000027
 51
270.4299379999993
  0
ARC
  5
8F
330
2
100
AcDbEntity
  8
OUTLINE
 62
     7
100
AcDbCircle
 10
651.6535345869037
 20
640.5077739316765
 30
0.0
 40
3.0
100
AcDbArc
 50
284.7372039999969
 51
0.0
  0
ARC
  5
90
330
2
100
AcDbEntity
  8
OUTLINE
 62
     7
100
AcDbCircle
 10
602.2056615869038
 20
952.8756789316764
 30
0.0
 40
300.0
100
AcDbArc
 50
269.4209389999989
 51
277.257640999998
  0
LINE
  5
91
330
2
100
AcDbEntity
  8
OUTLINE
 62
     7
100
AcDbLine
 10
607.4035345869037
 20
649.4210599316764
 30
0.0
 11
614.4035345869037
 21
649.4210599316764
 31
0.0
  0
LINE
  5
92
330
2
100
AcDbEntity
  8
OUTLINE
 62
     7
100
AcDbLine
 10
614.4035345869037
 20
651.4210599316766
 30
0.0
 11
614.4035345869037
 21
649.4210599316764
 31
0.0
  0
LINE
  5
93
330
2
100
AcDbEntity
  8
OUTLINE
 62
     7
100
AcDbLine
 10
619.4035345869037
 20
646.9210599316766
 30
0.0
 11
614.4035345869037
 21
651.4210599316766
 31
0.0
  0
LINE
  5
94
330
2
100
AcDbEntity
  8
OUTLINE
 62
     7
100
AcDbLine
 10
619.6535345869038
 20
661.9182219316765
 30
0.0
 11
619.6535345869038
 21
653.3834889316765
 31
0.0
  0
LINE
  5
95
330
2
100
AcDbEntity
  8
OUTLINE
 62
     7
100
AcDbLine
 10
614.4035345869037
 20
644.4210599316765
 30
0.0
 11
607.4035345869037
 21
644.4210599316765
 31
0.0
  0
ARC
  5
96
330
2
100
AcDbEntity
  8
OUTLINE
 62
     7
100
AcDbCircle
 10
599.1535455869039
 20
650.8911019316765
 30
0.0
 40
2.0
100
AcDbArc
 50
89.42093899999894
 51
182.9999999999989
  0
LINE
  5
97
330
2
100
AcDbEntity
  8
OUTLINE
 62
     7
100
AcDbLine
 10
607.4035345869037
 20
644.4210599316765
 30
0.0
 11
607.4035345869037
 21
649.4210599316764
 31
0.0
  0
ARC
  5
98
330
2
100
AcDbEntity
  8
OUTLINE
 62
     7
100
AcDbCircle
 10
599.5838525869037
 20
642.6803619316764
 30
0.0
 40
2.0
100
AcDbArc
 50
182.9999999999989
 51
270.4107519999976
  0
LINE
  5
99
330
2
100
AcDbEntity
  8
OUTLINE
 62
     7
100
AcDbLine
 10
597.5865935869038
 20
642.5756899316766
 30
0.0
 11
597.1562865869039
 21
650.7864299316763
 31
0.0
  0
TEXT
  5
9A
330
2
100
AcDbEntity
  8
OUTLINE
 62
     7
100
AcDbText
 10
621.9035385869037
 20
649.6377069316764
 30
0.0
 40
6.0
  1
水
 50
270.0000029999976
 41
0.972222
100
AcDbText
  0
TEXT
  5
9B
330
2
100
AcDbEntity
  8
OUTLINE
 62
     7
100
AcDbText
 10
628.9035385869039
 20
649.6377069316764
 30
0.0
 40
6.0
  1
浄
 50
270.0000029999976
 41
0.972222
100
AcDbText
  0
LINE
  5
9C
330
2
100
AcDbEntity
  8
OUTLINE
 62
     7
100
AcDbLine
 10
619.4035345869037
 20
646.9210599316766
 30
0.0
 11
614.4035345869037
 21
642.4210599316766
 31
0.0
  0
LINE
  5
9D
330
2
100
AcDbEntity
  8
OUTLINE
 62
     7
100
AcDbLine
 10
614.4035345869037
 20
642.4210599316766
 30
0.0
 11
614.4035345869037
 21
644.4210599316765
 31
0.0
  0
ARC
  5
9E
330
2
100
AcDbEntity
  8
OUTLINE
 62
     7
100
AcDbCircle
 10
622.6535345869038
 20
640.5077739316765
 30
0.0
 40
3.0
100
AcDbArc
 50
203.9952619999995
 51
255.2627960000029
  0
ARC
  5
9F
330
2
100
AcDbEntity
  8
OUTLINE
 62
     7
100
AcDbCircle
 10
620.6535345869037
 20
661.9182219316765
 30
0.0
 40
1.0
100
AcDbArc
 50
90.0
 51
180.0
  0
LINE
  5
A0
330
2
100
AcDbEntity
  8
OUTLINE
 62
     7
100
AcDbLine
 10
622.1535425869038
 20
663.4182219316763
 30
0.0
 11
622.1535425869038
 21
662.9182219316763
 31
0.0
  0
POINT
  5
A1
330
2
100
AcDbEntity
  8
0
  6
CONTINUOUS
 62
     5
100
AcDbPoint
 10
637.1535345869038
 20
698.3462867046474
 30
0.0
  0
ENDSEC
  0
SECTION
  2
OBJECTS
  0
DICTIONARY
  5
A
330
0
100
AcDbDictionary
  3
ACAD_COLOR
350
33
  3
ACAD_GROUP
350
2F
  3
ACAD_LAYOUT
350
F
  3
ACAD_MATERIAL
350
32
  3
ACAD_MLINESTYLE
350
30
  3
ACAD_PLOTSETTINGS
350
31
  3
ACAD_PLOTSTYLENAME
350
9
  3
ACAD_TABLESTYLE
350
34
  3
ACDBVARIABLEDICTIONARY
350
A5
  3
ACDBHEADERROUNDTRIPXREC
350
C4
  0
DICTIONARY
  5
18
330
17
100
AcDbDictionary
280
     1
  3
ACAD_LAYERFILTERS
360
19
  3
ACLYDICTIONARY
360
1A
  0
DICTIONARY
  5
3
330
2
100
AcDbDictionary
280
     1
  3
ACAD_LAYOUTSELFREF
360
E5
  3
ACAD_SORTENTS
360
A2
  0
DICTIONARY
  5
12
330
11
100
AcDbDictionary
280
     1
  3
ACAD_LAYOUTSELFREF
360
E6
  0
DICTIONARY
  5
33
102
{ACAD_REACTORS
330
A
102
}
330
A
100
AcDbDictionary
  0
DICTIONARY
  5
2F
102
{ACAD_REACTORS
330
A
102
}
330
A
100
AcDbDictionary
  0
DICTIONARY
  5
F
102
{ACAD_REACTORS
330
A
102
}
330
A
100
AcDbDictionary
  0
DICTIONARY
  5
32
102
{ACAD_REACTORS
330
A
102
}
330
A
100
AcDbDictionary
  0
DICTIONARY
  5
30
102
{ACAD_REACTORS
330
A
102
}
330
A
100
AcDbDictionary
  3
STANDARD
350
36
  0
DICTIONARY
  5
31
102
{ACAD_REACTORS
330
A
102
}
330
A
100
AcDbDictionary
  0
ACDBDICTIONARYWDFLT
  5
9
102
{ACAD_REACTORS
330
A
102
}
330
A
100
AcDbDictionary
281
     1
  3
Normal
350
8
100
AcDbDictionaryWithDefault
340
8
1001
ACAD
1000
TREAT_AS_HARD
1070
     0
  0
DICTIONARY
  5
34
102
{ACAD_REACTORS
330
A
102
}
330
A
100
AcDbDictionary
  3
STANDARD
350
37
  0
DICTIONARY
  5
A5
102
{ACAD_REACTORS
330
A
102
}
330
A
100
AcDbDictionary
  3
CTABLESTYLE
350
A6
  3
DIMASSOC
350
B5
  3
HIDETEXT
350
B4
  3
PROJECTNAME
350
B6
  0
DICTIONARY
  5
C4
102
{ACAD_REACTORS
330
A
102
}
330
A
100
AcDbDictionary
  3
TSTACKALIGN
350
C5
  3
TSTACKSIZE
350
C6
  3
HYPERLINKBASE
350
C7
  3
STYLESHEET
350
C8
  3
LAYOUTDICT
350
C9
  3
PLOTSETDICT
350
CA
  3
PLOTSTYLNAMDICT
350
CB
  3
LWETCUNION
350
CC
  3
INSUNITS
350
CD
  3
CEPSNTYPE
350
CE
  3
FINGERPRINTGUID
350
CF
  3
VERSIONGUID
350
D0
  3
PSVPSCALE
350
D1
  3
DIMSTYLEDATA
350
D2
  3
PUCSORTHOREF
350
D3
  3
PUCSORTHOVIEW
350
D4
  3
PUCSBASE
350
D5
  3
PUCSORGTOP
350
D6
  3
PUCSORGBOTTOM
350
D7
  3
PUCSORGLEFT
350
D8
  3
PUCSORGRIGHT
350
D9
  3
PUCSORGFRONT
350
DA
  3
PUCSORGBACK
350
DB
  3
UCSORTHOREF
350
DC
  3
UCSORTHOVIEW
350
DD
  3
UCSBASE
350
DE
  3
UCSORGTOP
350
DF
  3
UCSORGBOTTOM
350
E0
  3
UCSORGLEFT
350
E1
  3
UCSORGRIGHT
350
E2
  3
UCSORGFRONT
350
E3
  3
UCSORGBACK
350
E4
  0
DICTIONARY
  5
19
102
{ACAD_REACTORS
330
18
102
}
330
18
100
AcDbDictionary
  0
DICTIONARY
  5
1A
102
{ACAD_REACTORS
330
18
102
}
330
18
100
AcDbDictionary
1001
ACAD
1000
<All
  0
XRECORD
  5
E5
102
{ACAD_REACTORS
330
3
102
}
330
3
100
AcDbXrecord
340
2
  0
SORTENTSTABLE
  5
A2
102
{ACAD_REACTORS
330
3
102
}
330
3
100
AcDbSortentsTable
330
2
  0
XRECORD
  5
E6
102
{ACAD_REACTORS
330
12
102
}
330
12
100
AcDbXrecord
340
11
  0
MLINESTYLE
  5
36
102
{ACAD_REACTORS
330
30
102
}
330
30
100
AcDbMlineStyle
  2
STANDARD
 70
     0
  3

 62
   256
 51
90.0
 52
90.0
 71
     2
 49
0.5
 62
   256
  6
BYLAYER
 49
-0.5
 62
   256
  6
BYLAYER
  0
ACDBPLACEHOLDER
  5
8
102
{ACAD_REACTORS
330
9
102
}
330
9
100
AcDbPlaceHolder
280
     0
  0
ACAD_PROXY_OBJECT
  5
37
102
{ACAD_REACTORS
330
34
102
}
330
34
100
AcDbProxyObject
 90
      499
 91
      506
 93
     1841
310
4214DD185B99185C9928B81E85EB51B8AE3F2E07A17AD46E2B8FC02B5E8DC0F42B1CFD028000000C1008070000C3001FDFF8000000C1003FBFF000000182007F7FE00000030400FEFFC00000060801FDFF8000000C1003FBFF00000018200000000000000681FA0B0000001820100E000186003FBFF000000182007F7FE000
310
00030400FEFFC00000060801FDFF8000000C1003FBFF000000182007F7FE000000304000AD7A3703D0AC73F4160000003040201C00030C007F7FE00000030400FEFFC00000060801FDFF8000000C1003FBFF000000182007F7FE00000030400FEFFC000000608030
340
1C
340
1C
340
1C
 94
        0
1001
ACAD
1000
AcadProxyRoundTripData
1071
      503
1071
   393239
1070
     0
  0
DICTIONARYVAR
  5
A6
102
{ACAD_REACTORS
330
A5
102
}
330
A5
100
DictionaryVariables
280
     0
  1
STANDARD
  0
DICTIONARYVAR
  5
B5
102
{ACAD_REACTORS
330
A5
102
}
330
A5
100
DictionaryVariables
280
     0
  1
1
  0
DICTIONARYVAR
  5
B4
102
{ACAD_REACTORS
330
A5
102
}
330
A5
100
DictionaryVariables
280
     0
  1
1
  0
DICTIONARYVAR
  5
B6
102
{ACAD_REACTORS
330
A5
102
}
330
A5
100
DictionaryVariables
280
     0
  1

  0
XRECORD
  5
C5
102
{ACAD_REACTORS
330
C4
102
}
330
C4
100
AcDbXrecord
 90
        1
  0
XRECORD
  5
C6
102
{ACAD_REACTORS
330
C4
102
}
330
C4
100
AcDbXrecord
 90
       70
  0
XRECORD
  5
C7
102
{ACAD_REACTORS
330
C4
102
}
330
C4
100
AcDbXrecord
  1

  0
XRECORD
  5
C8
102
{ACAD_REACTORS
330
C4
102
}
330
C4
100
AcDbXrecord
  1

  0
XRECORD
  5
C9
102
{ACAD_REACTORS
330
C4
102
}
330
C4
100
AcDbXrecord
340
F
  0
XRECORD
  5
CA
102
{ACAD_REACTORS
330
C4
102
}
330
C4
100
AcDbXrecord
340
31
  0
XRECORD
  5
CB
102
{ACAD_REACTORS
330
C4
102
}
330
C4
100
AcDbXrecord
340
9
  0
XRECORD
  5
CC
102
{ACAD_REACTORS
330
C4
102
}
330
C4
100
AcDbXrecord
 90
    10781
  0
XRECORD
  5
CD
102
{ACAD_REACTORS
330
C4
102
}
330
C4
100
AcDbXrecord
 90
        0
  0
XRECORD
  5
CE
102
{ACAD_REACTORS
330
C4
102
}
330
C4
100
AcDbXrecord
 90
        0
  0
XRECORD
  5
CF
102
{ACAD_REACTORS
330
C4
102
}
330
C4
100
AcDbXrecord
  1
{72CF701C-B080-4E78-89AE-151AFF3612D9}
  0
XRECORD
  5
D0
102
{ACAD_REACTORS
330
C4
102
}
330
C4
100
AcDbXrecord
  1
{4092B8B5-BF9D-4016-A817-7FD17A51A700}
  0
XRECORD
  5
D1
102
{ACAD_REACTORS
330
C4
102
}
330
C4
100
AcDbXrecord
 40
0.0
  0
XRECORD
  5
D2
102
{ACAD_REACTORS
330
C4
102
}
330
C4
100
AcDbXrecord
1000
DSTYLE
1002
{
1070
    79
 70
     2
1070
   341
340
28
1070
   342
340
28
1002
}
  0
XRECORD
  5
D3
102
{ACAD_REACTORS
330
C4
102
}
330
C4
100
AcDbXrecord
340
0
  0
XRECORD
  5
D4
102
{ACAD_REACTORS
330
C4
102
}
330
C4
100
AcDbXrecord
 70
     0
  0
XRECORD
  5
D5
102
{ACAD_REACTORS
330
C4
102
}
330
C4
100
AcDbXrecord
340
0
  0
XRECORD
  5
D6
102
{ACAD_REACTORS
330
C4
102
}
330
C4
100
AcDbXrecord
 10
0.0
 20
0.0
 30
0.0
  0
XRECORD
  5
D7
102
{ACAD_REACTORS
330
C4
102
}
330
C4
100
AcDbXrecord
 10
0.0
 20
0.0
 30
0.0
  0
XRECORD
  5
D8
102
{ACAD_REACTORS
330
C4
102
}
330
C4
100
AcDbXrecord
 10
0.0
 20
0.0
 30
0.0
  0
XRECORD
  5
D9
102
{ACAD_REACTORS
330
C4
102
}
330
C4
100
AcDbXrecord
 10
0.0
 20
0.0
 30
0.0
  0
XRECORD
  5
DA
102
{ACAD_REACTORS
330
C4
102
}
330
C4
100
AcDbXrecord
 10
0.0
 20
0.0
 30
0.0
  0
XRECORD
  5
DB
102
{ACAD_REACTORS
330
C4
102
}
330
C4
100
AcDbXrecord
 10
0.0
 20
0.0
 30
0.0
  0
XRECORD
  5
DC
102
{ACAD_REACTORS
330
C4
102
}
330
C4
100
AcDbXrecord
340
0
  0
XRECORD
  5
DD
102
{ACAD_REACTORS
330
C4
102
}
330
C4
100
AcDbXrecord
 70
     0
  0
XRECORD
  5
DE
102
{ACAD_REACTORS
330
C4
102
}
330
C4
100
AcDbXrecord
340
0
  0
XRECORD
  5
DF
102
{ACAD_REACTORS
330
C4
102
}
330
C4
100
AcDbXrecord
 10
0.0
 20
0.0
 30
0.0
  0
XRECORD
  5
E0
102
{ACAD_REACTORS
330
C4
102
}
330
C4
100
AcDbXrecord
 10
0.0
 20
0.0
 30
0.0
  0
XRECORD
  5
E1
102
{ACAD_REACTORS
330
C4
102
}
330
C4
100
AcDbXrecord
 10
0.0
 20
0.0
 30
0.0
  0
XRECORD
  5
E2
102
{ACAD_REACTORS
330
C4
102
}
330
C4
100
AcDbXrecord
 10
0.0
 20
0.0
 30
0.0
  0
XRECORD
  5
E3
102
{ACAD_REACTORS
330
C4
102
}
330
C4
100
AcDbXrecord
 10
0.0
 20
0.0
 30
0.0
  0
XRECORD
  5
E4
102
{ACAD_REACTORS
330
C4
102
}
330
C4
100
AcDbXrecord
 10
0.0
 20
0.0
 30
0.0
  0
ENDSEC
  0
EOF
