  0
SECTION
  2
HEADER
  9
$ACADVER
  1
AC1014
  9
$ACADMAINTVER
 70
     9
  9
$DWGCODEPAGE
  3
ANSI_932
  9
$INSBASE
 10
637.1535345869038
 20
294.4391967046476
 30
0.0
  9
$EXTMIN
 10
349.5848275127813
 20
289.6671059792602
 30
0.0
  9
$EXTMAX
 10
664.2239735869037
 20
555.9537594322267
 30
0.0
  9
$LIMMIN
 10
31.0
 20
25.5
  9
$LIMMAX
 10
1219.0
 20
865.4999999999999
  9
$ORTHOMODE
 70
     1
  9
$REGENMODE
 70
     1
  9
$FILLMODE
 70
     1
  9
$QTEXTMODE
 70
     0
  9
$MIRRTEXT
 70
     0
  9
$DRAGMODE
 70
     2
  9
$LTSCALE
 40
2.0
  9
$OSMODE
 70
   513
  9
$ATTMODE
 70
     1
  9
$TEXTSIZE
 40
0.2
  9
$TRACEWID
 40
0.05
  9
$TEXTSTYLE
  7
ｽﾀｲﾙ1
  9
$CLAYER
  8
0
  9
$CELTYPE
  6
CONTINUOUS
  9
$CECOLOR
 62
   256
  9
$CELTSCALE
 40
1.0
  9
$DELOBJ
 70
     1
  9
$DISPSILH
 70
     0
  9
$DIMSCALE
 40
3.0
  9
$DIMASZ
 40
2.0
  9
$DIMEXO
 40
2.0
  9
$DIMDLI
 40
7.0
  9
$DIMRND
 40
0.0
  9
$DIMDLE
 40
0.0
  9
$DIMEXE
 40
0.5
  9
$DIMTP
 40
0.0
  9
$DIMTM
 40
0.0
  9
$DIMTXT
 40
2.0
  9
$DIMCEN
 40
0.09
  9
$DIMTSZ
 40
0.0
  9
$DIMTOL
 70
     0
  9
$DIMLIM
 70
     0
  9
$DIMTIH
 70
     0
  9
$DIMTOH
 70
     0
  9
$DIMSE1
 70
     0
  9
$DIMSE2
 70
     0
  9
$DIMTAD
 70
     1
  9
$DIMZIN
 70
     8
  9
$DIMBLK
  1
OPEN
  9
$DIMASO
 70
     1
  9
$DIMSHO
 70
     1
  9
$DIMPOST
  1

  9
$DIMAPOST
  1

  9
$DIMALT
 70
     0
  9
$DIMALTD
 70
     2
  9
$DIMALTF
 40
0.03937
  9
$DIMLFAC
 40
1.0
  9
$DIMTOFL
 70
     1
  9
$DIMTVP
 40
0.0
  9
$DIMTIX
 70
     0
  9
$DIMSOXD
 70
     0
  9
$DIMSAH
 70
     0
  9
$DIMBLK1
  1

  9
$DIMBLK2
  1

  9
$DIMSTYLE
  2
G1
  9
$DIMCLRD
 70
     0
  9
$DIMCLRE
 70
     0
  9
$DIMCLRT
 70
     7
  9
$DIMTFAC
 40
1.0
  9
$DIMGAP
 40
0.8
  9
$DIMJUST
 70
     0
  9
$DIMSD1
 70
     0
  9
$DIMSD2
 70
     0
  9
$DIMTOLJ
 70
     1
  9
$DIMTZIN
 70
     0
  9
$DIMALTZ
 70
     0
  9
$DIMALTTZ
 70
     0
  9
$DIMFIT
 70
     3
  9
$DIMUPT
 70
     0
  9
$DIMUNIT
 70
     2
  9
$DIMDEC
 70
     2
  9
$DIMTDEC
 70
     2
  9
$DIMALTU
 70
     2
  9
$DIMALTTD
 70
     2
  9
$DIMTXSTY
  7
STANDARD
  9
$DIMAUNIT
 70
     0
  9
$LUNITS
 70
     2
  9
$LUPREC
 70
     4
  9
$SKETCHINC
 40
0.1
  9
$FILLETRAD
 40
5.0
  9
$AUNITS
 70
     0
  9
$AUPREC
 70
     0
  9
$MENU
  1
.
  9
$ELEVATION
 40
0.0
  9
$PELEVATION
 40
0.0
  9
$THICKNESS
 40
0.0
  9
$LIMCHECK
 70
     0
  9
$BLIPMODE
 70
     0
  9
$CHAMFERA
 40
0.0
  9
$CHAMFERB
 40
0.0
  9
$CHAMFERC
 40
0.0
  9
$CHAMFERD
 40
0.0
  9
$SKPOLY
 70
     0
  9
$TDCREATE
 40
2452110.000000000
  9
$TDUPDATE
 40
2453944.012952836
  9
$TDINDWG
 40
0.4437360648
  9
$TDUSRTIMER
 40
0.4437358796
  9
$USRTIMER
 70
     1
  9
$ANGBASE
 50
0.0
  9
$ANGDIR
 70
     0
  9
$PDMODE
 70
     3
  9
$PDSIZE
 40
0.0
  9
$PLINEWID
 40
0.0
  9
$COORDS
 70
     1
  9
$SPLFRAME
 70
     0
  9
$SPLINETYPE
 70
     6
  9
$SPLINESEGS
 70
     8
  9
$ATTDIA
 70
     0
  9
$ATTREQ
 70
     1
  9
$HANDLING
 70
 10241
  9
$HANDSEED
  5
D7
  9
$SURFTAB1
 70
     6
  9
$SURFTAB2
 70
     6
  9
$SURFTYPE
 70
     6
  9
$SURFU
 70
     6
  9
$SURFV
 70
     6
  9
$UCSNAME
  2

  9
$UCSORG
 10
0.0
 20
0.0
 30
0.0
  9
$UCSXDIR
 10
1.0
 20
0.0
 30
0.0
  9
$UCSYDIR
 10
0.0
 20
1.0
 30
0.0
  9
$PUCSNAME
  2

  9
$PUCSORG
 10
0.0
 20
0.0
 30
0.0
  9
$PUCSXDIR
 10
1.0
 20
0.0
 30
0.0
  9
$PUCSYDIR
 10
0.0
 20
1.0
 30
0.0
  9
$USERI1
 70
     0
  9
$USERI2
 70
     0
  9
$USERI3
 70
     0
  9
$USERI4
 70
     0
  9
$USERI5
 70
     0
  9
$USERR1
 40
0.0
  9
$USERR2
 40
0.0
  9
$USERR3
 40
0.0
  9
$USERR4
 40
0.0
  9
$USERR5
 40
0.0
  9
$WORLDVIEW
 70
     1
  9
$SHADEDGE
 70
     3
  9
$SHADEDIF
 70
    70
  9
$TILEMODE
 70
     1
  9
$MAXACTVP
 70
    48
  9
$PINSBASE
 10
0.0
 20
0.0
 30
0.0
  9
$PLIMCHECK
 70
     0
  9
$PEXTMIN
 10
1.000000000000000E+20
 20
1.000000000000000E+20
 30
1.000000000000000E+20
  9
$PEXTMAX
 10
-1.000000000000000E+20
 20
-1.000000000000000E+20
 30
-1.000000000000000E+20
  9
$PLIMMIN
 10
0.0
 20
0.0
  9
$PLIMMAX
 10
12.0
 20
9.0
  9
$UNITMODE
 70
     0
  9
$VISRETAIN
 70
     1
  9
$PLINEGEN
 70
     0
  9
$PSLTSCALE
 70
     1
  9
$TREEDEPTH
 70
  3020
  9
$PICKSTYLE
 70
     1
  9
$CMLSTYLE
  2
STANDARD
  9
$CMLJUST
 70
     0
  9
$CMLSCALE
 40
1.0
  9
$PROXYGRAPHICS
 70
     1
  9
$MEASUREMENT
 70
     0
  0
ENDSEC
  0
SECTION
  2
CLASSES
  0
CLASS
  1
ACDBDICTIONARYWDFLT
  2
AcDbDictionaryWithDefault
  3
AutoCAD 2000
 90
        0
280
     0
281
     0
  0
CLASS
  1
ACDBPLACEHOLDER
  2
AcDbPlaceHolder
  3
AutoCAD 2000
 90
        0
280
     0
281
     0
  0
CLASS
  1
LAYOUT
  2
AcDbLayout
  3
AutoCAD 2000
 90
        0
280
     0
281
     0
  0
CLASS
  1
TABLESTYLE
  2
AcDbTableStyle
  3
ObjectDBX Classes
 90
     2047
280
     0
281
     0
  0
CLASS
  1
SORTENTSTABLE
  2
AcDbSortentsTable
  3
AutoCAD 2000
 90
        0
280
     0
281
     0
  0
CLASS
  1
DICTIONARYVAR
  2
AcDbDictionaryVar
  3
AutoCAD 2000
 90
        0
280
     0
281
     0
  0
CLASS
  1
ACAD_PROXY_OBJECT_WRAPPER
  2
AcDbProxyObjectWrapper
  3
AutoCAD 2000
 90
        0
280
     0
281
     0
  0
CLASS
  1
LONG_TRANSACTION
  2
AcDbLongTransaction
  3
AutoCAD 2000
 90
        0
280
     0
281
     0
  0
CLASS
  1
LWPOLYLINE
  2
AcDbPolyline
  3
AutoCAD 2000
 90
        0
280
     0
281
     1
  0
CLASS
  1
HATCH
  2
AcDbHatch
  3
AutoCAD 2000
 90
        0
280
     0
281
     1
  0
CLASS
  1
XRECORD
  2
AcDbXrecord
  3
AutoCAD 2000
 90
        0
280
     0
281
     0
  0
CLASS
  1
LONG_TRANSACTION
  2
AcDbLongTransaction
  3
AutoCAD 2000
 90
        0
280
     0
281
     0
  0
CLASS
  1
LWPOLYLINE
  2
AcDbPolyline
  3
AutoCAD 2000
 90
        0
280
     0
281
     1
  0
CLASS
  1
HATCH
  2
AcDbHatch
  3
AutoCAD 2000
 90
        0
280
     0
281
     1
  0
CLASS
  1
XRECORD
  2
AcDbXrecord
  3
AutoCAD 2000
 90
        0
280
     0
281
     0
  0
ENDSEC
  0
SECTION
  2
TABLES
  0
TABLE
  2
VPORT
  5
23
330
0
100
AcDbSymbolTable
 70
     2
  0
VPORT
  5
B3
330
23
100
AcDbSymbolTableRecord
100
AcDbViewportTableRecord
  2
*ACTIVE
 70
     0
 10
0.0
 20
0.0
 11
1.0
 21
1.0
 12
515.0430572487294
 22
421.5955829826366
 13
0.0
 23
0.0
 14
1.0
 24
1.0
 15
0.0
 25
0.0
 16
0.0
 26
0.0
 36
1.0
 17
0.0
 27
0.0
 37
0.0
 40
270.087571824631
 41
1.933867735470941
 42
50.0
 43
0.0
 44
0.0
 50
0.0
 51
0.0
 71
     0
 72
   100
 73
     1
 74
     1
 75
     0
 76
     0
 77
     0
 78
     0
  0
ENDTAB
  0
TABLE
  2
LTYPE
  5
1E
330
0
100
AcDbSymbolTable
 70
     1
  0
LTYPE
  5
1F
330
1E
100
AcDbSymbolTableRecord
100
AcDbLinetypeTableRecord
  2
BYBLOCK
 70
     0
  3

 72
    65
 73
     0
 40
0.0
  0
LTYPE
  5
20
330
1E
100
AcDbSymbolTableRecord
100
AcDbLinetypeTableRecord
  2
BYLAYER
 70
     0
  3

 72
    65
 73
     0
 40
0.0
  0
LTYPE
  5
C
330
1E
100
AcDbSymbolTableRecord
100
AcDbLinetypeTableRecord
  2
CONTINUOUS
 70
     0
  3
Solid line
 72
    65
 73
     0
 40
0.0
  0
ENDTAB
  0
TABLE
  2
LAYER
  5
17
102
{ACAD_XDICTIONARY
360
18
102
}
330
0
100
AcDbSymbolTable
 70
     2
  0
LAYER
  5
7
330
17
100
AcDbSymbolTableRecord
100
AcDbLayerTableRecord
  2
0
 70
     0
 62
     7
  6
CONTINUOUS
  0
LAYER
  5
39
330
17
100
AcDbSymbolTableRecord
100
AcDbLayerTableRecord
  2
OUTLINE
 70
     0
 62
     7
  6
CONTINUOUS
1001
ACAECLAYERSTANDARD
1000

1000

  0
ENDTAB
  0
TABLE
  2
STYLE
  5
1B
330
0
100
AcDbSymbolTable
 70
     2
  0
STYLE
  5
1C
330
1B
100
AcDbSymbolTableRecord
100
AcDbTextStyleTableRecord
  2
STANDARD
 70
     0
 40
0.0
 41
1.0
 50
0.0
 71
     0
 42
0.2
  3
romans.shx
  4
bigfont.shx
  0
STYLE
  5
35
330
1B
100
AcDbSymbolTableRecord
100
AcDbTextStyleTableRecord
  2
ｽﾀｲﾙ1
 70
     0
 40
0.0
 41
0.9
 50
0.0
 71
     0
 42
0.2
  3
MS PGothic.ttf
  4

1001
ACAD
1000
MS PGothic
1071
    32818
  0
ENDTAB
  0
TABLE
  2
VIEW
  5
21
330
0
100
AcDbSymbolTable
 70
     0
  0
ENDTAB
  0
TABLE
  2
UCS
  5
22
330
0
100
AcDbSymbolTable
 70
     0
  0
ENDTAB
  0
TABLE
  2
APPID
  5
25
330
0
100
AcDbSymbolTable
 70
     3
  0
APPID
  5
B
330
25
100
AcDbSymbolTableRecord
100
AcDbRegAppTableRecord
  2
ACAD
 70
     0
  0
APPID
  5
3A
330
25
100
AcDbSymbolTableRecord
100
AcDbRegAppTableRecord
  2
ACAECLAYERSTANDARD
 70
     0
  0
APPID
  5
10
330
25
100
AcDbSymbolTableRecord
100
AcDbRegAppTableRecord
  2
ACAD_PSEXT
 70
     0
  0
ENDTAB
  0
TABLE
  2
DIMSTYLE
  5
26
330
0
100
AcDbSymbolTable
 70
     1
  0
DIMSTYLE
105
27
330
26
100
AcDbSymbolTableRecord
100
AcDbDimStyleTableRecord
  2
G1
 70
     0
  3

  4

  5
OPEN
  6

  7

 40
3.0
 41
2.0
 42
2.0
 43
7.0
 44
0.5
 45
0.0
 46
0.0
 47
0.0
 48
0.0
140
2.0
141
0.09
142
0.0
143
0.03937
144
1.0
145
0.0
146
1.0
147
0.8
 71
     0
 72
     0
 73
     0
 74
     0
 75
     0
 76
     0
 77
     1
 78
     8
170
     0
171
     2
172
     1
173
     0
174
     0
175
     0
176
     0
177
     0
178
     7
270
     2
271
     2
272
     2
273
     2
274
     2
340
1C
275
     0
280
     0
281
     0
282
     0
283
     1
284
     0
285
     0
286
     0
287
     3
288
     0
  0
ENDTAB
  0
TABLE
  2
BLOCK_RECORD
  5
1
330
0
100
AcDbSymbolTable
 70
     1
  0
BLOCK_RECORD
  5
2
102
{ACAD_XDICTIONARY
360
3
102
}
330
1
100
AcDbSymbolTableRecord
100
AcDbBlockTableRecord
  2
*MODEL_SPACE
  0
BLOCK_RECORD
  5
11
102
{ACAD_XDICTIONARY
360
12
102
}
330
1
100
AcDbSymbolTableRecord
100
AcDbBlockTableRecord
  2
*PAPER_SPACE
  0
BLOCK_RECORD
  5
28
330
1
100
AcDbSymbolTableRecord
100
AcDbBlockTableRecord
  2
_OPEN
  0
ENDTAB
  0
ENDSEC
  0
SECTION
  2
BLOCKS
  0
BLOCK
  5
6
330
2
100
AcDbEntity
  8
0
100
AcDbBlockBegin
  2
*MODEL_SPACE
 70
     0
 10
0.0
 20
0.0
 30
0.0
  3
*MODEL_SPACE
  1

  0
ENDBLK
  5
D
330
2
100
AcDbEntity
  8
0
100
AcDbBlockEnd
  0
BLOCK
  5
14
330
11
100
AcDbEntity
 67
     1
  8
0
100
AcDbBlockBegin
  2
*PAPER_SPACE
 70
     0
 10
0.0
 20
0.0
 30
0.0
  3
*PAPER_SPACE
  1

  0
ENDBLK
  5
15
330
11
100
AcDbEntity
 67
     1
  8
0
100
AcDbBlockEnd
  0
BLOCK
  5
29
330
28
100
AcDbEntity
  8
0
100
AcDbBlockBegin
  2
_OPEN
 70
     0
 10
0.0
 20
0.0
 30
0.0
  3
_OPEN
  1

  0
LINE
  5
2A
330
28
100
AcDbEntity
  8
0
 62
     0
100
AcDbLine
 10
-0.9659259999999999
 20
0.258819
 30
0.0
 11
0.0
 21
0.0
 31
0.0
  0
LINE
  5
2B
330
28
100
AcDbEntity
  8
0
 62
     0
100
AcDbLine
 10
0.0
 20
0.0
 30
0.0
 11
-0.9659259999999999
 21
-0.258819
 31
0.0
  0
LINE
  5
2C
330
28
100
AcDbEntity
  8
0
 62
     0
100
AcDbLine
 10
0.0
 20
0.0
 30
0.0
 11
-1.0
 21
0.0
 31
0.0
  0
ENDBLK
  5
2D
330
28
100
AcDbEntity
  8
0
100
AcDbBlockEnd
  0
ENDSEC
  0
SECTION
  2
ENTITIES
  0
LINE
  5
38
330
2
100
AcDbEntity
  8
OUTLINE
100
AcDbLine
 10
663.1535345869037
 20
457.8981777046475
 30
0.0
 11
663.1535345869037
 21
294.4391967046476
 31
0.0
  0
LINE
  5
3B
330
2
100
AcDbEntity
  8
OUTLINE
100
AcDbLine
 10
610.1535345869038
 20
465.4391967046475
 30
0.0
 11
664.1535345869037
 21
465.4391967046475
 31
0.0
  0
LWPOLYLINE
  5
3C
330
2
100
AcDbEntity
  8
OUTLINE
100
AcDbPolyline
 90
       23
 70
     0
 43
0.0
 10
664.2239735869037
 20
465.4391967046475
 10
664.0026605869039
 20
466.3898477046475
 10
663.7800065869036
 20
467.3400357046475
 10
663.5546715869037
 20
468.2892947046475
 10
662.8491735869038
 20
471.1268677046477
 10
662.0712825869039
 20
473.9393917046474
 10
661.1848015869037
 20
476.7143437046476
 10
660.8589205869037
 20
477.6288127046475
 10
660.5156125869037
 20
478.5372517046475
 10
660.1535345869038
 20
479.4391967046475
 10
659.7159785869038
 20
480.4602767046476
 10
659.2527795869037
 20
481.4716397046476
 10
658.7645015869037
 20
482.4726347046476
 10
657.1548065869039
 20
485.4069107046475
 10
655.3396275869038
 20
488.2244687046476
 10
653.3341445869037
 20
490.9077497046475
 10
652.6259835869039
 20
491.7693037046475
 10
651.8989265869037
 20
492.6133357046476
 10
651.1535345869037
 20
493.4391967046475
 10
650.1787975869038
 20
494.4659517046475
 10
649.1824065869039
 20
495.4697737046475
 10
648.1715795869038
 20
496.4583077046476
 10
647.1535345869037
 20
497.4391967046475
  0
LINE
  5
3D
330
2
100
AcDbEntity
  8
OUTLINE
100
AcDbLine
 10
647.1535345869037
 20
497.4391967046475
 30
0.0
 11
529.9074195869038
 21
512.4406067046476
 31
0.0
  0
ARC
  5
3E
330
2
100
AcDbEntity
  8
OUTLINE
100
AcDbCircle
 10
612.9737865869039
 20
485.5230757046474
 30
0.0
 40
3.0
100
AcDbArc
 50
0.0
 51
74.19600799999997
  0
LINE
  5
3F
330
2
100
AcDbEntity
  8
OUTLINE
100
AcDbLine
 10
528.0168435869038
 20
504.2516217046475
 30
0.0
 11
613.7908285869038
 21
488.4096727046475
 31
0.0
  0
LWPOLYLINE
  5
40
330
2
100
AcDbEntity
  8
OUTLINE
100
AcDbPolyline
 90
       23
 70
     0
 43
0.0
 10
610.1535345869038
 20
465.4391967046475
 10
610.2040255869037
 20
465.9684847046476
 10
610.2546285869038
 20
466.4978807046475
 10
610.3054565869038
 20
467.0274937046476
 10
610.4604095869039
 20
468.6187157046475
 10
610.6214275869038
 20
470.2157897046475
 10
610.7915425869038
 20
471.8216417046475
 10
610.8507925869036
 20
472.3593817046475
 10
610.9115035869038
 20
472.8985307046476
 10
610.9737865869037
 20
473.4391967046475
 10
611.0565375869038
 20
474.1342497046475
 10
611.1449375869039
 20
474.8301647046475
 10
611.2418705869038
 20
475.5251357046476
 10
611.6126845869038
 20
477.5863127046475
 10
612.1640495869037
 20
479.5739327046475
 10
612.4014105869037
 20
480.2116917046475
 10
612.6703625869037
 20
480.8340497046477
 10
612.9737865869039
 20
481.4391967046475
 10
613.4786535869038
 20
482.2875087046475
 10
614.0467855869037
 20
483.1036127046473
 10
614.6623675869038
 20
483.8955607046474
 10
615.3095825869037
 20
484.6714047046474
 10
615.9726135869037
 20
485.4391967046475
  0
LWPOLYLINE
  5
41
330
2
100
AcDbEntity
  8
OUTLINE
100
AcDbPolyline
 90
       18
 70
     0
 43
0.0
 10
529.9015565869039
 20
512.3882577046475
 10
528.9608005869038
 20
512.4406067046476
 10
526.1015105869038
 20
511.9280747046475
 10
525.0542665869038
 20
511.4155427046475
 10
524.3503345869038
 20
510.9030097046476
 10
523.8459475869039
 20
510.3904777046476
 10
523.4856775869038
 20
509.8779457046474
 10
523.2422205869038
 20
509.3654137046476
 10
523.1009995869039
 20
508.8528817046475
 10
523.0546765869038
 20
508.3403497046474
 10
523.1009995869039
 20
507.8278167046476
 10
523.2422205869038
 20
507.3152847046475
 10
523.4856775869038
 20
506.8027527046476
 10
523.8459475869039
 20
506.2902207046476
 10
524.3503345869038
 20
505.7776887046475
 10
525.0542665869038
 20
505.2651557046476
 10
526.1015105869038
 20
504.7526237046476
 10
528.0213925869039
 20
504.2922907046476
  0
LINE
  5
42
330
2
100
AcDbEntity
  8
OUTLINE
100
AcDbLine
 10
611.1535345869038
 20
403.1052327046475
 30
0.0
 11
611.1535345869038
 21
457.8981777046475
 31
0.0
  0
LINE
  5
43
330
2
100
AcDbEntity
  8
OUTLINE
100
AcDbLine
 10
611.1535345869038
 20
294.4391967046476
 30
0.0
 11
663.1535345869037
 21
294.4391967046476
 31
0.0
  0
LINE
  5
44
330
2
100
AcDbEntity
  8
OUTLINE
100
AcDbLine
 10
611.1535345869038
 20
407.4391967046476
 30
0.0
 11
663.1535345869037
 21
407.4391967046476
 31
0.0
  0
LINE
  5
45
330
2
100
AcDbEntity
  8
OUTLINE
100
AcDbLine
 10
611.1535345869038
 20
367.4391967046476
 30
0.0
 11
663.1535345869037
 21
367.4391967046476
 31
0.0
  0
LINE
  5
46
330
2
100
AcDbEntity
  8
OUTLINE
100
AcDbLine
 10
611.1535345869038
 20
366.4391967046475
 30
0.0
 11
663.1535345869037
 21
366.4391967046475
 31
0.0
  0
LINE
  5
47
330
2
100
AcDbEntity
  8
OUTLINE
100
AcDbLine
 10
661.5699425869038
 20
464.6063817046476
 30
0.0
 11
661.1535345869038
 21
465.4391967046475
 31
0.0
  0
ARC
  5
48
330
2
100
AcDbEntity
  8
OUTLINE
100
AcDbCircle
 10
648.1535345869038
 20
457.8981777046475
 30
0.0
 40
15.0
100
AcDbArc
 50
0.0
 51
26.565051
  0
ARC
  5
49
330
2
100
AcDbEntity
  8
OUTLINE
100
AcDbCircle
 10
626.1535345869037
 20
457.8981777046475
 30
0.0
 40
15.0
100
AcDbArc
 50
153.4349489999998
 51
180.0
  0
LINE
  5
4A
330
2
100
AcDbEntity
  8
OUTLINE
100
AcDbLine
 10
612.7371265869037
 20
464.6063817046476
 30
0.0
 11
613.1535345869037
 21
465.4391967046475
 31
0.0
  0
LINE
  5
4B
330
2
100
AcDbEntity
  8
OUTLINE
100
AcDbLine
 10
611.1535345869038
 20
294.4391967046476
 30
0.0
 11
611.1535345869038
 21
353.3591646790219
 31
0.0
  0
LINE
  5
4C
330
2
100
AcDbEntity
  8
OUTLINE
100
AcDbLine
 10
611.1535345869038
 20
358.4964273581247
 30
0.0
 11
611.1535345869038
 21
368.2731608181434
 31
0.0
  0
ARC
  5
4D
330
2
100
AcDbEntity
  8
OUTLINE
 62
     7
100
AcDbCircle
 10
637.1535345869038
 20
338.4391967046476
 30
0.0
 40
17.5
100
AcDbArc
 50
147.043888999999
 51
80.29023700000221
  0
ARC
  5
4E
330
2
100
AcDbEntity
  8
OUTLINE
 62
     7
100
AcDbCircle
 10
637.1535345869038
 20
338.4391967046476
 30
0.0
 40
17.5
100
AcDbArc
 50
101.2499299999982
 51
137.6217989999972
  0
CIRCLE
  5
4F
330
2
100
AcDbEntity
  8
OUTLINE
 62
     7
100
AcDbCircle
 10
637.1535345869038
 20
338.4391967046476
 30
0.0
 40
7.0
  0
LINE
  5
50
330
2
100
AcDbEntity
  8
OUTLINE
 62
     7
100
AcDbLine
 10
607.1535345869038
 20
353.4391967046476
 30
0.0
 11
599.6535345869038
 21
353.4391967046476
 31
0.0
  0
ARC
  5
51
330
2
100
AcDbEntity
  8
OUTLINE
 62
     7
100
AcDbCircle
 10
606.3735685869037
 20
158.5535557046474
 30
0.0
 40
200.0
100
AcDbArc
 50
80.29023700000221
 51
91.94989300000292
  0
ARC
  5
52
330
2
100
AcDbEntity
  8
OUTLINE
 62
     7
100
AcDbCircle
 10
619.9522405869038
 20
349.5911237046476
 30
0.0
 40
3.0
100
AcDbArc
 50
327.0438889999991
 51
82.41797500000231
  0
ARC
  5
53
330
2
100
AcDbEntity
  8
OUTLINE
 62
     7
100
AcDbCircle
 10
607.1535345869038
 20
253.4391967046476
 30
0.0
 40
100.0
100
AcDbArc
 50
82.41797500000231
 51
90.0
  0
ARC
  5
54
330
2
100
AcDbEntity
  8
OUTLINE
 62
     7
100
AcDbCircle
 10
599.6535345869038
 20
355.9391967046475
 30
0.0
 40
2.5
100
AcDbArc
 50
91.94989300000292
 51
270.0
  0
LINE
  5
55
330
2
100
AcDbEntity
  8
OUTLINE
 62
     7
100
AcDbLine
 10
611.1535345869038
 20
368.2731607046477
 30
0.0
 11
447.8860545869038
 21
489.0847407046475
 31
0.0
  0
LINE
  5
56
330
2
100
AcDbEntity
  8
OUTLINE
 62
     7
100
AcDbLine
 10
446.8893035869038
 20
488.5782957046475
 30
0.0
 11
435.6353075869038
 21
496.9058147046474
 31
0.0
  0
LINE
  5
57
330
2
100
AcDbEntity
  8
OUTLINE
 62
     7
100
AcDbLine
 10
436.2301295869038
 20
497.7096707046475
 30
0.0
 11
447.4841265869038
 21
489.3821517046475
 31
0.0
  0
LINE
  5
58
330
2
100
AcDbEntity
  8
OUTLINE
 62
     7
100
AcDbLine
 10
448.0789485869038
 20
490.1860087046476
 30
0.0
 11
436.8249525869038
 21
498.5135277046476
 31
0.0
  0
LINE
  5
59
330
2
100
AcDbEntity
  8
OUTLINE
 62
     7
100
AcDbLine
 10
437.7171865869038
 20
499.7193137046476
 30
0.0
 11
448.9711825869038
 21
491.3917947046477
 31
0.0
  0
LINE
  5
5A
330
2
100
AcDbEntity
  8
OUTLINE
 62
     7
100
AcDbLine
 10
449.8634175869038
 20
492.5975797046476
 30
0.0
 11
438.6094215869039
 21
500.9250987046475
 31
0.0
  0
LINE
  5
5B
330
2
100
AcDbEntity
  8
OUTLINE
 62
     7
100
AcDbLine
 10
439.7990665869038
 20
502.5328127046476
 30
0.0
 11
451.0530625869038
 21
494.2052937046476
 31
0.0
  0
LINE
  5
5C
330
2
100
AcDbEntity
  8
OUTLINE
 62
     7
100
AcDbLine
 10
464.8385035869038
 20
511.9946617046474
 30
0.0
 11
447.5886435869038
 21
488.6828127046475
 31
0.0
  0
LINE
  5
5D
330
2
100
AcDbEntity
  8
OUTLINE
 62
     7
100
AcDbLine
 10
446.8893035869038
 20
488.5782957046475
 30
0.0
 11
464.7339865869038
 21
512.6940007046475
 31
0.0
  0
ARC
  5
5E
330
2
100
AcDbEntity
  8
OUTLINE
 62
     7
100
AcDbCircle
 10
447.1867145869039
 20
488.9802237046476
 30
0.0
 40
0.5
100
AcDbArc
 50
233.4999999999983
 51
323.4999999999983
  0
LINE
  5
5F
330
2
100
AcDbEntity
  8
OUTLINE
 62
     7
100
AcDbLine
 10
435.5307905869038
 20
497.6051537046475
 30
0.0
 11
452.7805025869038
 21
520.9168017046477
 31
0.0
  0
LINE
  5
60
330
2
100
AcDbEntity
  8
OUTLINE
 62
     7
100
AcDbLine
 10
453.4799905869038
 20
521.0215197046476
 30
0.0
 11
435.6353075869038
 21
496.9058147046474
 31
0.0
  0
LINE
  5
61
330
2
100
AcDbEntity
  8
OUTLINE
 62
     7
100
AcDbLine
 10
452.2427085869038
 20
495.8130067046476
 30
0.0
 11
440.9887125869038
 21
504.1405257046475
 31
0.0
  0
LINE
  5
62
330
2
100
AcDbEntity
  8
OUTLINE
 62
     7
100
AcDbLine
 10
454.6219995869038
 20
499.0284347046475
 30
0.0
 11
443.3680035869038
 21
507.3559537046476
 31
0.0
  0
LINE
  5
63
330
2
100
AcDbEntity
  8
OUTLINE
 62
     7
100
AcDbLine
 10
442.1783575869038
 20
505.7482397046475
 30
0.0
 11
453.4323535869038
 21
497.4207207046475
 31
0.0
  0
LINE
  5
64
330
2
100
AcDbEntity
  8
OUTLINE
 62
     7
100
AcDbLine
 10
444.5576485869038
 20
508.9636677046476
 30
0.0
 11
455.8116455869038
 21
500.6361487046476
 31
0.0
  0
LINE
  5
65
330
2
100
AcDbEntity
  8
OUTLINE
 62
     7
100
AcDbLine
 10
457.0012905869038
 20
502.2438617046478
 30
0.0
 11
445.7472945869038
 21
510.5713807046476
 31
0.0
  0
LINE
  5
66
330
2
100
AcDbEntity
  8
OUTLINE
 62
     7
100
AcDbLine
 10
446.9369405869038
 20
512.1790947046475
 30
0.0
 11
458.1909365869038
 21
503.8515757046475
 31
0.0
  0
LINE
  5
67
330
2
100
AcDbEntity
  8
OUTLINE
 62
     7
100
AcDbLine
 10
459.3805815869038
 20
505.4592897046476
 30
0.0
 11
448.1265855869038
 21
513.7868087046475
 31
0.0
  0
LINE
  5
68
330
2
100
AcDbEntity
  8
OUTLINE
 62
     7
100
AcDbLine
 10
449.3162315869038
 20
515.3945217046476
 30
0.0
 11
460.5702275869038
 21
507.0670027046475
 31
0.0
  0
LINE
  5
69
330
2
100
AcDbEntity
  8
OUTLINE
 62
     7
100
AcDbLine
 10
464.7339865869038
 20
512.6940007046475
 30
0.0
 11
453.4799905869038
 21
521.0215197046476
 31
0.0
  0
LINE
  5
6A
330
2
100
AcDbEntity
  8
OUTLINE
 62
     7
100
AcDbLine
 10
461.7598725869038
 20
508.6747167046476
 30
0.0
 11
450.5058765869038
 21
517.0022357046475
 31
0.0
  0
LINE
  5
6B
330
2
100
AcDbEntity
  8
OUTLINE
 62
     7
100
AcDbLine
 10
451.3981115869038
 20
518.2080207046476
 30
0.0
 11
462.652107586904
 21
509.8805017046476
 31
0.0
  0
LINE
  5
6C
330
2
100
AcDbEntity
  8
OUTLINE
 62
     7
100
AcDbLine
 10
463.5443415869038
 20
511.0862877046477
 30
0.0
 11
452.2903455869037
 21
519.4138067046476
 31
0.0
  0
LINE
  5
6D
330
2
100
AcDbEntity
  8
OUTLINE
 62
     7
100
AcDbLine
 10
452.8851685869038
 20
520.2176637046476
 30
0.0
 11
464.1391645869036
 21
511.8901447046475
 31
0.0
  0
ARC
  5
6E
330
2
100
AcDbEntity
  8
OUTLINE
 62
     7
100
AcDbCircle
 10
464.4365755869038
 20
512.2920727046476
 30
0.0
 40
0.5
100
AcDbArc
 50
323.4999999999983
 51
53.49999999999837
  0
ARC
  5
6F
330
2
100
AcDbEntity
  8
OUTLINE
 62
     7
100
AcDbCircle
 10
453.1825795869038
 20
520.6195917046476
 30
0.0
 40
0.5
100
AcDbArc
 50
53.49999999999837
 51
143.4999999999983
  0
ARC
  5
70
330
2
100
AcDbEntity
  8
OUTLINE
 62
     7
100
AcDbCircle
 10
452.3785735869038
 20
521.2142137046476
 30
0.0
 40
0.5
100
AcDbArc
 50
323.4999999999983
 51
53.5573530000024
  0
ARC
  5
71
330
2
100
AcDbEntity
  8
OUTLINE
 62
     7
100
AcDbCircle
 10
435.1288615869038
 20
497.9025657046475
 30
0.0
 40
0.5
100
AcDbArc
 50
233.4999999999983
 51
323.4999999999983
  0
ARC
  5
72
330
2
100
AcDbEntity
  8
OUTLINE
 62
     7
100
AcDbCircle
 10
435.9327185869038
 20
497.3077427046475
 30
0.0
 40
0.5
100
AcDbArc
 50
143.4999999999983
 51
233.4999999999983
  0
LINE
  5
73
330
2
100
AcDbEntity
  8
OUTLINE
 62
     7
100
AcDbLine
 10
464.5410925869038
 20
511.5927327046477
 30
0.0
 11
611.1535345869038
 21
403.1052327046475
 31
0.0
  0
ARC
  5
74
330
2
100
AcDbEntity
  8
OUTLINE
 62
     7
100
AcDbCircle
 10
362.3158795869038
 20
432.3139807046476
 30
0.0
 40
125.0
100
AcDbArc
 50
56.55992299999951
 51
76.7270110000012
  0
ARC
  5
75
330
2
100
AcDbEntity
  8
OUTLINE
 62
     7
100
AcDbCircle
 10
384.1270175869038
 20
524.7762657046478
 30
0.0
 40
30.0
100
AcDbArc
 50
76.7270110000012
 51
118.7753480000018
  0
LINE
  5
76
330
2
100
AcDbEntity
  8
OUTLINE
 62
     7
100
AcDbLine
 10
352.9092805869038
 20
527.3650797046475
 30
0.0
 11
413.3202095869038
 21
513.4181177046476
 31
0.0
  0
LINE
  5
77
330
2
100
AcDbEntity
  8
OUTLINE
 62
     7
100
AcDbLine
 10
351.7239384016018
 20
500.4414727474262
 30
0.0
 11
402.5831625869038
 21
488.7001077046475
 31
0.0
  0
LINE
  5
78
330
2
100
AcDbEntity
  8
OUTLINE
100
AcDbLine
 10
352.7900355869038
 20
526.8794577046476
 30
0.0
 11
413.2176195869038
 21
512.9286507046477
 31
0.0
  0
ARC
  5
79
330
2
100
AcDbEntity
  8
OUTLINE
 62
     7
100
AcDbCircle
 10
155.6666685869039
 20
119.3905017046476
 30
0.0
 40
500.0
100
AcDbArc
 50
53.5573530000024
 51
56.55992299999951
  0
ARC
  5
7A
330
2
100
AcDbEntity
  8
OUTLINE
 62
     7
100
AcDbCircle
 10
333.9460785869038
 20
529.6900777046475
 30
0.0
 40
80.998283
100
AcDbArc
 50
330.1835239999957
 51
348.0615560000007
  0
LINE
  5
7B
330
2
100
AcDbEntity
  8
OUTLINE
 62
     7
100
AcDbLine
 10
434.831450586904
 20
497.5006367046476
 30
0.0
 11
413.3202095869038
 21
513.4181177046476
 31
0.0
  0
LINE
  5
7C
330
2
100
AcDbEntity
  8
OUTLINE
 62
     7
100
AcDbLine
 10
412.8330245869038
 20
513.5305937046478
 30
0.0
 11
412.7205485869038
 21
513.0434087046475
 31
0.0
  0
ARC
  5
7D
330
2
100
AcDbEntity
  8
OUTLINE
 62
     7
100
AcDbCircle
 10
402.9205775869038
 20
490.1616657046476
 30
0.0
 40
1.5
100
AcDbArc
 50
257.0004399999997
 51
330.1835239999957
  0
ARC
  5
7E
330
2
100
AcDbEntity
  8
OUTLINE
 62
     7
100
AcDbCircle
 10
396.5424975869038
 20
516.3586747046475
 30
0.0
 40
45.0
100
AcDbArc
 50
146.7255120000009
 51
165.8425810000014
  0
ARC
  5
7F
330
2
100
AcDbEntity
  8
OUTLINE
 62
     7
100
AcDbCircle
 10
431.3832575869038
 20
507.1957207046475
 30
0.0
 40
80.998283
100
AcDbArc
 50
165.9393239999983
 51
183.8173564287265
  0
LWPOLYLINE
  5
80
330
2
100
AcDbEntity
  8
OUTLINE
 62
     7
100
AcDbPolyline
 90
      121
 70
     0
 43
0.0
 10
369.9419825869038
 20
550.1198977046477
 10
369.9842975869038
 20
550.0512097046476
 10
370.0265875869038
 20
549.9824857046474
 10
370.0688285869038
 20
549.9136847046477
 10
370.110996586904
 20
549.8447717046475
 10
370.1530675869038
 20
549.7757067046476
 10
370.1950155869038
 20
549.7064537046476
 10
370.2368175869038
 20
549.6369747046476
 10
370.2784485869038
 20
549.5672317046476
 10
370.3198835869038
 20
549.4971867046475
 10
370.3610995869038
 20
549.4268017046477
 10
370.4020705869038
 20
549.3560397046476
 10
370.4427735869038
 20
549.2848637046477
 10
370.4831835869038
 20
549.2132337046476
 10
370.5232765869038
 20
549.1411137046475
 10
370.5630265869038
 20
549.0684667046475
 10
370.6024115869038
 20
548.9952527046475
 10
370.6414045869038
 20
548.9214357046476
 10
370.6799835869038
 20
548.8469767046475
 10
370.7181225869038
 20
548.7718397046476
 10
370.7557975869038
 20
548.6959847046476
 10
370.7929845869038
 20
548.6193767046477
 10
370.8296595869038
 20
548.5419757046477
 10
370.8657965869038
 20
548.4637447046476
 10
370.9013715869038
 20
548.3846467046475
 10
370.9363615869038
 20
548.3046427046477
 10
370.9707405869038
 20
548.2236957046476
 10
371.0044845869038
 20
548.1417687046476
 10
371.0375695869038
 20
548.0588227046474
 10
371.0699705869038
 20
547.9748207046476
 10
371.1016645869038
 20
547.8897247046476
 10
371.1326075869038
 20
547.8035097046475
 10
371.1626835869038
 20
547.7162067046475
 10
371.1917595869038
 20
547.6278577046477
 10
371.2197025869038
 20
547.5385057046476
 10
371.2463785869038
 20
547.4481937046475
 10
371.2716525869038
 20
547.3569637046475
 10
371.2953925869038
 20
547.2648597046476
 10
371.3174645869038
 20
547.1719237046477
 10
371.3377335869038
 20
547.0781997046477
 10
371.3560675869038
 20
546.9837287046475
 10
371.3723315869038
 20
546.8885557046474
 10
371.386392586904
 20
546.7927217046476
 10
371.3981175869038
 20
546.6962707046476
 10
371.4073715869038
 20
546.5992447046476
 10
371.4140205869038
 20
546.5016877046478
 10
371.4179325869038
 20
546.4036417046477
 10
371.4189725869037
 20
546.3051507046475
 10
371.4170075869038
 20
546.2062557046476
 10
371.4119035869038
 20
546.1070007046474
 10
371.4035275869038
 20
546.0074277046476
 10
371.3917445869038
 20
545.9075817046475
 10
371.3764215869038
 20
545.8075027046475
 10
371.3574255869038
 20
545.7072357046476
 10
371.3346215869038
 20
545.6068227046475
 10
371.3078765869038
 20
545.5063067046475
 10
371.2770565869038
 20
545.4057307046475
 10
371.2420285869038
 20
545.3051377046477
 10
371.2026575869038
 20
545.2045697046478
 10
371.1588115869038
 20
545.1040697046478
 10
371.1103565869038
 20
545.0036817046475
 10
371.0383935869038
 20
544.8700047046477
 10
370.9582235869038
 20
544.7367427046477
 10
370.8700835869038
 20
544.6040377046475
 10
370.7742085869038
 20
544.4720317046476
 10
370.6708345869038
 20
544.3408657046476
 10
370.5601985869038
 20
544.2106817046476
 10
370.4425345869038
 20
544.0816197046475
 10
370.3180805869038
 20
543.9538227046475
 10
370.1870715869038
 20
543.8274307046476
 10
370.0497425869038
 20
543.7025867046477
 10
369.9063315869038
 20
543.5794307046476
 10
369.7570725869038
 20
543.4581047046475
 10
369.602203586904
 20
543.3387497046476
 10
369.4419585869038
 20
543.2215077046476
 10
369.2765745869038
 20
543.1065207046477
 10
369.1062875869038
 20
542.9939287046477
 10
368.9313335869038
 20
542.8838737046476
 10
368.7519475869038
 20
542.7764967046478
 10
368.5683665869038
 20
542.6719397046475
 10
368.3808265869038
 20
542.5703447046474
 10
368.1895625869038
 20
542.4718517046476
 10
367.9948105869038
 20
542.3766027046475
 10
367.7968085869038
 20
542.2847397046475
 10
367.5957895869038
 20
542.1964037046477
 10
367.3919915869038
 20
542.1117357046475
 10
367.1856505869038
 20
542.0308777046475
 10
366.9770005869038
 20
541.9539707046476
 10
366.7662795869038
 20
541.8811557046476
 10
366.5537235869038
 20
541.8125757046476
 10
366.3395665869038
 20
541.7483707046476
 10
366.1241845869038
 20
541.6886787046478
 10
365.9074855869038
 20
541.6333467046476
 10
365.689516586904
 20
541.5822237046477
 10
365.4703215869038
 20
541.5351607046476
 10
365.2499455869038
 20
541.4920057046477
 10
365.0284345869038
 20
541.4526097046477
 10
364.8058345869038
 20
541.4168217046476
 10
364.5821895869038
 20
541.3844927046475
 10
364.3575465869038
 20
541.3554717046475
 10
364.1319485869038
 20
541.3296087046476
 10
363.9054435869038
 20
541.3067527046474
 10
363.6780755869038
 20
541.2867547046475
 10
363.4498895869038
 20
541.2694637046477
 10
363.2209315869038
 20
541.2547307046475
 10
362.9912475869038
 20
541.2424037046474
 10
362.7608815869038
 20
541.2323327046475
 10
362.5298795869038
 20
541.2243697046476
 10
362.2982865869038
 20
541.2183617046475
 10
362.0661485869038
 20
541.2141597046477
 10
361.8335105869038
 20
541.2116147046475
 10
361.6004175869038
 20
541.2105737046475
 10
361.3669165869038
 20
541.2108897046476
 10
361.1330505869038
 20
541.2124097046476
 10
360.8988655869038
 20
541.2149847046475
 10
360.6644085869038
 20
541.2184657046476
 10
360.4297235869038
 20
541.2226997046476
 10
360.1948555869038
 20
541.2275387046475
 10
359.9598505869038
 20
541.2328327046476
 10
359.7247535869038
 20
541.2384297046476
 10
359.4896105869038
 20
541.2441807046475
  0
ARC
  5
81
330
2
100
AcDbEntity
  8
OUTLINE
 62
     7
100
AcDbCircle
 10
364.3412575869038
 20
545.2518817046475
 30
0.0
 40
5.774735999999998
100
AcDbArc
 50
110.0974909999981
 51
223.9025089999976
  0
LINE
  5
82
330
2
100
AcDbEntity
  8
OUTLINE
 62
     7
100
AcDbLine
 10
370.636957586904
 20
548.9299257046476
 30
0.0
 11
362.925521586904
 21
550.7102517046474
 31
0.0
  0
ARC
  5
83
330
2
100
AcDbEntity
  8
OUTLINE
 62
     7
100
AcDbCircle
 10
370.0013265869038
 20
550.6838777046475
 30
0.0
 40
0.5
100
AcDbArc
 50
129.1397649999985
 51
206.2920540000005
  0
ARC
  5
84
330
2
100
AcDbEntity
  8
OUTLINE
 62
     7
100
AcDbCircle
 10
370.0309365869038
 20
550.6094657046475
 30
0.0
 40
0.5
100
AcDbArc
 50
197.1049499999979
 51
259.4366479999957
  0
ARC
  5
85
330
2
100
AcDbEntity
  8
OUTLINE
 62
     7
100
AcDbCircle
 10
362.7005695869038
 20
549.7358817046475
 30
0.0
 40
1.0
100
AcDbArc
 50
77.00000000000291
 51
110.0974909999981
  0
ARC
  5
86
330
2
100
AcDbEntity
  8
OUTLINE
 62
     7
100
AcDbCircle
 10
359.3349265869038
 20
540.7687097046475
 30
0.0
 40
0.5
100
AcDbArc
 50
71.97881700000017
 51
147.4173310000014
  0
ARC
  5
87
330
2
100
AcDbEntity
  8
OUTLINE
 62
     7
100
AcDbCircle
 10
562.1004835869038
 20
385.6891967046476
 30
0.0
 40
52.053051
100
AcDbArc
 50
340.4528530000023
 51
19.5471469999976
  0
ARC
  5
88
330
2
100
AcDbEntity
  8
OUTLINE
 62
     7
100
AcDbCircle
 10
352.0613537411802
 20
501.9030304399644
 30
0.0
 40
1.5
100
AcDbArc
 50
183.8173564287248
 51
257.0004407052457
  0
LINE
  5
89
330
2
100
AcDbEntity
  8
OUTLINE
 62
     7
100
AcDbLine
 10
353.3964501864538
 20
527.2526078119553
 30
0.0
 11
353.2839751033008
 21
526.7654226002843
 31
0.0
  0
POINT
  5
8A
330
2
100
AcDbEntity
  8
0
  6
CONTINUOUS
 62
     5
100
AcDbPoint
 10
637.1535345869038
 20
294.4391967046476
 30
0.0
  0
ENDSEC
  0
SECTION
  2
OBJECTS
  0
DICTIONARY
  5
A
330
0
100
AcDbDictionary
  3
ACAD_COLOR
350
33
  3
ACAD_GROUP
350
2F
  3
ACAD_LAYOUT
350
F
  3
ACAD_MATERIAL
350
32
  3
ACAD_MLINESTYLE
350
30
  3
ACAD_PLOTSETTINGS
350
31
  3
ACAD_PLOTSTYLENAME
350
9
  3
ACAD_TABLESTYLE
350
34
  3
ACDBVARIABLEDICTIONARY
350
8C
  3
ACDBHEADERROUNDTRIPXREC
350
B4
  0
DICTIONARY
  5
18
330
17
100
AcDbDictionary
280
     1
  3
ACAD_LAYERFILTERS
360
19
  3
ACLYDICTIONARY
360
1A
  0
DICTIONARY
  5
3
330
2
100
AcDbDictionary
280
     1
  3
ACAD_LAYOUTSELFREF
360
D5
  3
ACAD_SORTENTS
360
8B
  0
DICTIONARY
  5
12
330
11
100
AcDbDictionary
280
     1
  3
ACAD_LAYOUTSELFREF
360
D6
  0
DICTIONARY
  5
33
102
{ACAD_REACTORS
330
A
102
}
330
A
100
AcDbDictionary
  0
DICTIONARY
  5
2F
102
{ACAD_REACTORS
330
A
102
}
330
A
100
AcDbDictionary
  0
DICTIONARY
  5
F
102
{ACAD_REACTORS
330
A
102
}
330
A
100
AcDbDictionary
  0
DICTIONARY
  5
32
102
{ACAD_REACTORS
330
A
102
}
330
A
100
AcDbDictionary
  0
DICTIONARY
  5
30
102
{ACAD_REACTORS
330
A
102
}
330
A
100
AcDbDictionary
  3
STANDARD
350
36
  0
DICTIONARY
  5
31
102
{ACAD_REACTORS
330
A
102
}
330
A
100
AcDbDictionary
  0
ACDBDICTIONARYWDFLT
  5
9
102
{ACAD_REACTORS
330
A
102
}
330
A
100
AcDbDictionary
281
     1
  3
Normal
350
8
100
AcDbDictionaryWithDefault
340
8
1001
ACAD
1000
TREAT_AS_HARD
1070
     0
  0
DICTIONARY
  5
34
102
{ACAD_REACTORS
330
A
102
}
330
A
100
AcDbDictionary
  3
STANDARD
350
37
  0
DICTIONARY
  5
8C
102
{ACAD_REACTORS
330
A
102
}
330
A
100
AcDbDictionary
  3
CTABLESTYLE
350
8D
  3
DIMASSOC
350
A5
  3
HIDETEXT
350
A4
  3
PROJECTNAME
350
A6
  0
DICTIONARY
  5
B4
102
{ACAD_REACTORS
330
A
102
}
330
A
100
AcDbDictionary
  3
TSTACKALIGN
350
B5
  3
TSTACKSIZE
350
B6
  3
HYPERLINKBASE
350
B7
  3
STYLESHEET
350
B8
  3
LAYOUTDICT
350
B9
  3
PLOTSETDICT
350
BA
  3
PLOTSTYLNAMDICT
350
BB
  3
LWETCUNION
350
BC
  3
INSUNITS
350
BD
  3
CEPSNTYPE
350
BE
  3
FINGERPRINTGUID
350
BF
  3
VERSIONGUID
350
C0
  3
PSVPSCALE
350
C1
  3
DIMSTYLEDATA
350
C2
  3
PUCSORTHOREF
350
C3
  3
PUCSORTHOVIEW
350
C4
  3
PUCSBASE
350
C5
  3
PUCSORGTOP
350
C6
  3
PUCSORGBOTTOM
350
C7
  3
PUCSORGLEFT
350
C8
  3
PUCSORGRIGHT
350
C9
  3
PUCSORGFRONT
350
CA
  3
PUCSORGBACK
350
CB
  3
UCSORTHOREF
350
CC
  3
UCSORTHOVIEW
350
CD
  3
UCSBASE
350
CE
  3
UCSORGTOP
350
CF
  3
UCSORGBOTTOM
350
D0
  3
UCSORGLEFT
350
D1
  3
UCSORGRIGHT
350
D2
  3
UCSORGFRONT
350
D3
  3
UCSORGBACK
350
D4
  0
DICTIONARY
  5
19
102
{ACAD_REACTORS
330
18
102
}
330
18
100
AcDbDictionary
  0
DICTIONARY
  5
1A
102
{ACAD_REACTORS
330
18
102
}
330
18
100
AcDbDictionary
1001
ACAD
1000
<All
  0
XRECORD
  5
D5
102
{ACAD_REACTORS
330
3
102
}
330
3
100
AcDbXrecord
340
2
  0
SORTENTSTABLE
  5
8B
102
{ACAD_REACTORS
330
3
102
}
330
3
100
AcDbSortentsTable
330
2
  0
XRECORD
  5
D6
102
{ACAD_REACTORS
330
12
102
}
330
12
100
AcDbXrecord
340
11
  0
MLINESTYLE
  5
36
102
{ACAD_REACTORS
330
30
102
}
330
30
100
AcDbMlineStyle
  2
STANDARD
 70
     0
  3

 62
   256
 51
90.0
 52
90.0
 71
     2
 49
0.5
 62
   256
  6
BYLAYER
 49
-0.5
 62
   256
  6
BYLAYER
  0
ACDBPLACEHOLDER
  5
8
102
{ACAD_REACTORS
330
9
102
}
330
9
100
AcDbPlaceHolder
280
     0
  0
ACAD_PROXY_OBJECT
  5
37
102
{ACAD_REACTORS
330
34
102
}
330
34
100
AcDbProxyObject
 90
      499
 91
      506
 93
     1841
310
4214DD185B99185C9928B81E85EB51B8AE3F2E07A17AD46E2B8FC02B5E8DC0F42B1CFD028000000C1008070000C3001FDFF8000000C1003FBFF000000182007F7FE00000030400FEFFC00000060801FDFF8000000C1003FBFF00000018200000000000000681FA0B0000001820100E000186003FBFF000000182007F7FE000
310
00030400FEFFC00000060801FDFF8000000C1003FBFF000000182007F7FE000000304000AD7A3703D0AC73F4160000003040201C00030C007F7FE00000030400FEFFC00000060801FDFF8000000C1003FBFF000000182007F7FE00000030400FEFFC000000608000
340
1C
340
1C
340
1C
 94
        0
1001
ACAD
1000
AcadProxyRoundTripData
1071
      503
1071
   393239
1070
     0
  0
DICTIONARYVAR
  5
8D
102
{ACAD_REACTORS
330
8C
102
}
330
8C
100
DictionaryVariables
280
     0
  1
STANDARD
  0
DICTIONARYVAR
  5
A5
102
{ACAD_REACTORS
330
8C
102
}
330
8C
100
DictionaryVariables
280
     0
  1
1
  0
DICTIONARYVAR
  5
A4
102
{ACAD_REACTORS
330
8C
102
}
330
8C
100
DictionaryVariables
280
     0
  1
1
  0
DICTIONARYVAR
  5
A6
102
{ACAD_REACTORS
330
8C
102
}
330
8C
100
DictionaryVariables
280
     0
  1

  0
XRECORD
  5
B5
102
{ACAD_REACTORS
330
B4
102
}
330
B4
100
AcDbXrecord
 90
        1
  0
XRECORD
  5
B6
102
{ACAD_REACTORS
330
B4
102
}
330
B4
100
AcDbXrecord
 90
       70
  0
XRECORD
  5
B7
102
{ACAD_REACTORS
330
B4
102
}
330
B4
100
AcDbXrecord
  1

  0
XRECORD
  5
B8
102
{ACAD_REACTORS
330
B4
102
}
330
B4
100
AcDbXrecord
  1

  0
XRECORD
  5
B9
102
{ACAD_REACTORS
330
B4
102
}
330
B4
100
AcDbXrecord
340
F
  0
XRECORD
  5
BA
102
{ACAD_REACTORS
330
B4
102
}
330
B4
100
AcDbXrecord
340
31
  0
XRECORD
  5
BB
102
{ACAD_REACTORS
330
B4
102
}
330
B4
100
AcDbXrecord
340
9
  0
XRECORD
  5
BC
102
{ACAD_REACTORS
330
B4
102
}
330
B4
100
AcDbXrecord
 90
    10781
  0
XRECORD
  5
BD
102
{ACAD_REACTORS
330
B4
102
}
330
B4
100
AcDbXrecord
 90
        0
  0
XRECORD
  5
BE
102
{ACAD_REACTORS
330
B4
102
}
330
B4
100
AcDbXrecord
 90
        0
  0
XRECORD
  5
BF
102
{ACAD_REACTORS
330
B4
102
}
330
B4
100
AcDbXrecord
  1
{AB88D6F8-B911-49F7-AB0F-05C2EF178D33}
  0
XRECORD
  5
C0
102
{ACAD_REACTORS
330
B4
102
}
330
B4
100
AcDbXrecord
  1
{966EECB4-2F57-4FF2-ABA3-4FF2CE454F43}
  0
XRECORD
  5
C1
102
{ACAD_REACTORS
330
B4
102
}
330
B4
100
AcDbXrecord
 40
0.0
  0
XRECORD
  5
C2
102
{ACAD_REACTORS
330
B4
102
}
330
B4
100
AcDbXrecord
1000
DSTYLE
1002
{
1070
    79
 70
     2
1070
   341
340
28
1070
   342
340
28
1002
}
  0
XRECORD
  5
C3
102
{ACAD_REACTORS
330
B4
102
}
330
B4
100
AcDbXrecord
340
0
  0
XRECORD
  5
C4
102
{ACAD_REACTORS
330
B4
102
}
330
B4
100
AcDbXrecord
 70
     0
  0
XRECORD
  5
C5
102
{ACAD_REACTORS
330
B4
102
}
330
B4
100
AcDbXrecord
340
0
  0
XRECORD
  5
C6
102
{ACAD_REACTORS
330
B4
102
}
330
B4
100
AcDbXrecord
 10
0.0
 20
0.0
 30
0.0
  0
XRECORD
  5
C7
102
{ACAD_REACTORS
330
B4
102
}
330
B4
100
AcDbXrecord
 10
0.0
 20
0.0
 30
0.0
  0
XRECORD
  5
C8
102
{ACAD_REACTORS
330
B4
102
}
330
B4
100
AcDbXrecord
 10
0.0
 20
0.0
 30
0.0
  0
XRECORD
  5
C9
102
{ACAD_REACTORS
330
B4
102
}
330
B4
100
AcDbXrecord
 10
0.0
 20
0.0
 30
0.0
  0
XRECORD
  5
CA
102
{ACAD_REACTORS
330
B4
102
}
330
B4
100
AcDbXrecord
 10
0.0
 20
0.0
 30
0.0
  0
XRECORD
  5
CB
102
{ACAD_REACTORS
330
B4
102
}
330
B4
100
AcDbXrecord
 10
0.0
 20
0.0
 30
0.0
  0
XRECORD
  5
CC
102
{ACAD_REACTORS
330
B4
102
}
330
B4
100
AcDbXrecord
340
0
  0
XRECORD
  5
CD
102
{ACAD_REACTORS
330
B4
102
}
330
B4
100
AcDbXrecord
 70
     0
  0
XRECORD
  5
CE
102
{ACAD_REACTORS
330
B4
102
}
330
B4
100
AcDbXrecord
340
0
  0
XRECORD
  5
CF
102
{ACAD_REACTORS
330
B4
102
}
330
B4
100
AcDbXrecord
 10
0.0
 20
0.0
 30
0.0
  0
XRECORD
  5
D0
102
{ACAD_REACTORS
330
B4
102
}
330
B4
100
AcDbXrecord
 10
0.0
 20
0.0
 30
0.0
  0
XRECORD
  5
D1
102
{ACAD_REACTORS
330
B4
102
}
330
B4
100
AcDbXrecord
 10
0.0
 20
0.0
 30
0.0
  0
XRECORD
  5
D2
102
{ACAD_REACTORS
330
B4
102
}
330
B4
100
AcDbXrecord
 10
0.0
 20
0.0
 30
0.0
  0
XRECORD
  5
D3
102
{ACAD_REACTORS
330
B4
102
}
330
B4
100
AcDbXrecord
 10
0.0
 20
0.0
 30
0.0
  0
XRECORD
  5
D4
102
{ACAD_REACTORS
330
B4
102
}
330
B4
100
AcDbXrecord
 10
0.0
 20
0.0
 30
0.0
  0
ENDSEC
  0
EOF
