  0
SECTION
  2
HEADER
  9
$ACADVER
  1
AC1009
  9
$INSBASE
 10
374.26874461162657
 20
14.552999998459651
 30
0.0
  9
$EXTMIN
 10
87.626044247855205
 20
14.552999998459651
 30
0.0
  9
$EXTMAX
 10
400.36187119931219
 20
285.79992653099231
 30
0.0
  9
$LIMMIN
 10
0.0
 20
0.0
  9
$LIMMAX
 10
420.0
 20
297.0
  9
$ORTHOMODE
 70
     0
  9
$REGENMODE
 70
     1
  9
$FILLMODE
 70
     1
  9
$QTEXTMODE
 70
     0
  9
$MIRRTEXT
 70
     1
  9
$DRAGMODE
 70
     2
  9
$LTSCALE
 40
1.0
  9
$OSMODE
 70
    55
  9
$ATTMODE
 70
     1
  9
$TEXTSIZE
 40
2.5
  9
$TRACEWID
 40
1.0
  9
$TEXTSTYLE
  7
STANDARD
  9
$CLAYER
  8
0
  9
$CELTYPE
  6
BYLAYER
  9
$CECOLOR
 62
   256
  9
$DIMSCALE
 40
1.0
  9
$DIMASZ
 40
2.5
  9
$DIMEXO
 40
0.625
  9
$DIMDLI
 40
3.75
  9
$DIMRND
 40
0.0
  9
$DIMDLE
 40
0.0
  9
$DIMEXE
 40
1.25
  9
$DIMTP
 40
0.0
  9
$DIMTM
 40
0.0
  9
$DIMTXT
 40
2.5
  9
$DIMCEN
 40
2.5
  9
$DIMTSZ
 40
0.0
  9
$DIMTOL
 70
     0
  9
$DIMLIM
 70
     0
  9
$DIMTIH
 70
     0
  9
$DIMTOH
 70
     0
  9
$DIMSE1
 70
     0
  9
$DIMSE2
 70
     0
  9
$DIMTAD
 70
     1
  9
$DIMZIN
 70
     8
  9
$DIMBLK
  1

  9
$DIMASO
 70
     1
  9
$DIMSHO
 70
     1
  9
$DIMPOST
  1

  9
$DIMAPOST
  1

  9
$DIMALT
 70
     0
  9
$DIMALTD
 70
     3
  9
$DIMALTF
 40
0.03937007874016
  9
$DIMLFAC
 40
1.0
  9
$DIMTOFL
 70
     1
  9
$DIMTVP
 40
0.0
  9
$DIMTIX
 70
     0
  9
$DIMSOXD
 70
     0
  9
$DIMSAH
 70
     0
  9
$DIMBLK1
  1

  9
$DIMBLK2
  1

  9
$DIMSTYLE
  2
ISO-25
  9
$DIMCLRD
 70
     0
  9
$DIMCLRE
 70
     0
  9
$DIMCLRT
 70
     0
  9
$DIMTFAC
 40
1.0
  9
$DIMGAP
 40
0.625
  9
$LUNITS
 70
     2
  9
$LUPREC
 70
     4
  9
$SKETCHINC
 40
1.0
  9
$FILLETRAD
 40
10.0
  9
$AUNITS
 70
     0
  9
$AUPREC
 70
     0
  9
$MENU
  1
.
  9
$ELEVATION
 40
0.0
  9
$PELEVATION
 40
0.0
  9
$THICKNESS
 40
0.0
  9
$LIMCHECK
 70
     0
  9
$BLIPMODE
 70
     0
  9
$CHAMFERA
 40
10.0
  9
$CHAMFERB
 40
10.0
  9
$SKPOLY
 70
     0
  9
$TDCREATE
 40
2453440.8841997571
  9
$TDUPDATE
 40
2453440.8882360649
  9
$TDINDWG
 40
0.0040371991
  9
$TDUSRTIMER
 40
0.0040370255
  9
$USRTIMER
 70
     1
  9
$ANGBASE
 50
0.0
  9
$ANGDIR
 70
     0
  9
$PDMODE
 70
     0
  9
$PDSIZE
 40
0.0
  9
$PLINEWID
 40
0.0
  9
$COORDS
 70
     1
  9
$SPLFRAME
 70
     0
  9
$SPLINETYPE
 70
     6
  9
$SPLINESEGS
 70
     8
  9
$ATTDIA
 70
     0
  9
$ATTREQ
 70
     1
  9
$HANDLING
 70
 10241
  9
$HANDSEED
  5
158
  9
$SURFTAB1
 70
     6
  9
$SURFTAB2
 70
     6
  9
$SURFTYPE
 70
     6
  9
$SURFU
 70
     6
  9
$SURFV
 70
     6
  9
$UCSNAME
  2

  9
$UCSORG
 10
0.0
 20
0.0
 30
0.0
  9
$UCSXDIR
 10
1.0
 20
0.0
 30
0.0
  9
$UCSYDIR
 10
0.0
 20
1.0
 30
0.0
  9
$PUCSNAME
  2

  9
$PUCSORG
 10
0.0
 20
0.0
 30
0.0
  9
$PUCSXDIR
 10
1.0
 20
0.0
 30
0.0
  9
$PUCSYDIR
 10
0.0
 20
1.0
 30
0.0
  9
$USERI1
 70
     0
  9
$USERI2
 70
     0
  9
$USERI3
 70
     0
  9
$USERI4
 70
     0
  9
$USERI5
 70
     0
  9
$USERR1
 40
0.0
  9
$USERR2
 40
0.0
  9
$USERR3
 40
0.0
  9
$USERR4
 40
0.0
  9
$USERR5
 40
0.0
  9
$WORLDVIEW
 70
     1
  9
$SHADEDGE
 70
     3
  9
$SHADEDIF
 70
    70
  9
$TILEMODE
 70
     1
  9
$MAXACTVP
 70
    64
  9
$PLIMCHECK
 70
     0
  9
$PEXTMIN
 10
1.0000000000000000E+020
 20
1.0000000000000000E+020
 30
1.0000000000000000E+020
  9
$PEXTMAX
 10
-1.0000000000000000E+020
 20
-1.0000000000000000E+020
 30
-1.0000000000000000E+020
  9
$PLIMMIN
 10
0.0
 20
0.0
  9
$PLIMMAX
 10
420.0
 20
297.0
  9
$UNITMODE
 70
     0
  9
$VISRETAIN
 70
     1
  9
$PLINEGEN
 70
     0
  9
$PSLTSCALE
 70
     1
  0
ENDSEC
  0
SECTION
  2
TABLES
  0
TABLE
  2
VPORT
 70
     7
  0
VPORT
  2
*ACTIVE
 70
     0
 10
0.0
 20
0.0
 11
1.0
 21
1.0
 12
282.12024048096191
 22
148.5
 13
0.0
 23
0.0
 14
10.0
 24
10.0
 15
10.0
 25
10.0
 16
0.0
 26
0.0
 36
1.0
 17
0.0
 27
0.0
 37
0.0
 40
297.0
 41
1.899799599198396
 42
50.0
 43
0.0
 44
0.0
 50
0.0
 51
0.0
 71
     0
 72
   100
 73
     1
 74
     3
 75
     0
 76
     0
 77
     0
 78
     0
  0
ENDTAB
  0
TABLE
  2
LTYPE
 70
     1
  0
LTYPE
  2
CONTINUOUS
 70
     0
  3
Solid line
 72
    65
 73
     0
 40
0.0
  0
ENDTAB
  0
TABLE
  2
LAYER
 70
     1
  0
LAYER
  2
0
 70
     0
 62
     7
  6
CONTINUOUS
  0
ENDTAB
  0
TABLE
  2
STYLE
 70
     1
  0
STYLE
  2
STANDARD
 70
     0
 40
0.0
 41
1.0
 50
0.0
 71
     0
 42
2.5
  3
romant.shx
  4
bigfont.shx
  0
ENDTAB
  0
TABLE
  2
VIEW
 70
     0
  0
ENDTAB
  0
TABLE
  2
UCS
 70
     0
  0
ENDTAB
  0
TABLE
  2
APPID
 70
     1
  0
APPID
  2
ACAD
 70
     0
  0
ENDTAB
  0
TABLE
  2
DIMSTYLE
 70
     2
  0
DIMSTYLE
  2
ISO-25
 70
     0
  3

  4

  5

  6

  7

 40
1.0
 41
2.5
 42
0.625
 43
3.75
 44
1.25
 45
0.0
 46
0.0
 47
0.0
 48
0.0
140
2.5
141
2.5
142
0.0
143
0.03937007874016
144
1.0
145
0.0
146
1.0
147
0.625
 71
     0
 72
     0
 73
     0
 74
     0
 75
     0
 76
     0
 77
     1
 78
     8
170
     0
171
     3
172
     1
173
     0
174
     0
175
     0
176
     0
177
     0
178
     0
  0
DIMSTYLE
  2
STANDARD
 70
     0
  3

  4

  5

  6

  7

 40
1.0
 41
0.18
 42
0.0625
 43
0.38
 44
0.18
 45
0.0
 46
0.0
 47
0.0
 48
0.0
140
0.18
141
0.09
142
0.0
143
25.399999999999999
144
1.0
145
0.0
146
1.0
147
0.09
 71
     0
 72
     0
 73
     1
 74
     1
 75
     0
 76
     0
 77
     0
 78
     0
170
     0
171
     2
172
     0
173
     0
174
     0
175
     0
176
     0
177
     0
178
     0
  0
ENDTAB
  0
ENDSEC
  0
SECTION
  2
BLOCKS
  0
BLOCK
  8
0
  2
$MODEL_SPACE
 70
     0
 10
0.0
 20
0.0
 30
0.0
  3
$MODEL_SPACE
  1

  0
ENDBLK
  5
21
  8
0
  0
BLOCK
 67
     1
  8
0
  2
$PAPER_SPACE
 70
     0
 10
0.0
 20
0.0
 30
0.0
  3
$PAPER_SPACE
  1

  0
ENDBLK
  5
1D
 67
     1
  8
0
  0
ENDSEC
  0
SECTION
  2
ENTITIES
  0
ARC
  5
A8
  8
0
  6
BYBLOCK
 62
     0
 10
106.16136561162649
 20
121.7781889984597
 30
0.0
 40
130.0
 50
56.256753999999077
 51
70.065341000000146
  0
ARC
  5
A9
  8
0
  6
BYBLOCK
 62
     0
 10
115.67125561162651
 20
122.6403169984596
 30
0.0
 40
155.0
 50
59.743246000000937
 51
79.406765999999578
  0
ARC
  5
AA
  8
0
  6
BYBLOCK
 62
     0
 10
148.77989961162649
 20
239.28844599845959
 30
0.0
 40
5.0
 50
70.065341000000146
 51
171.09629499999889
  0
ARC
  5
AB
  8
0
  6
BYBLOCK
 62
     0
 10
379.85529961162661
 20
239.3689039984597
 30
0.0
 40
292.0
 50
176.07926500000059
 51
180.2069529999998
  0
LINE
  5
AC
  8
0
  6
BYBLOCK
 62
     0
 10
142.48384661162649
 20
233.0326299984597
 30
0.0
 11
90.049946611626552
 21
237.62086899845971
 31
0.0
  0
LINE
  5
AD
  8
0
  6
BYBLOCK
 62
     0
 10
87.857204611626571
 20
238.31420199845959
 30
0.0
 11
142.73763261162651
 21
233.5127869984596
 31
0.0
  0
LINE
  5
AE
  8
0
  6
BYBLOCK
 62
     0
 10
90.799306611626577
 20
225.00714299845961
 30
0.0
 11
114.16439361162649
 21
222.9629629984596
 31
0.0
  0
ARC
  5
AF
  8
0
  6
BYBLOCK
 62
     0
 10
91.017195611626576
 20
227.4976299984597
 30
0.0
 40
2.5
 50
186.1197020000005
 51
265.00000000000023
  0
ARC
  5
B0
  8
0
  6
BYBLOCK
 62
     0
 10
87.997611611626539
 20
237.4983789984596
 30
0.0
 40
0.3
 50
85.000939999999986
 51
183.17390500000039
  0
LINE
  5
B1
  8
0
  6
BYBLOCK
 62
     0
 10
90.067302611626559
 20
237.8192809984597
 30
0.0
 11
90.049874611626535
 21
237.62004199845961
 31
0.0
  0
LINE
  5
B2
  8
0
  6
BYBLOCK
 62
     0
 10
90.067302611626559
 20
237.8192809984597
 30
0.0
 11
90.392302611626576
 21
238.0919979984597
 31
0.0
  0
LINE
  5
B3
  8
0
  6
BYBLOCK
 62
     0
 10
88.023756611626567
 20
237.7972699984596
 30
0.0
 11
90.049874611626535
 21
237.62004199845961
 31
0.0
  0
ARC
  5
B4
  8
0
  6
BYBLOCK
 62
     0
 10
287.39171161162648
 20
248.55231099845969
 30
0.0
 40
200.0
 50
183.17296499999941
 51
186.1197020000005
  0
LINE
  5
B5
  8
0
  6
BYBLOCK
 62
     0
 10
137.52948161162649
 20
220.91878299845959
 30
0.0
 11
114.16439361162649
 21
222.9629629984596
 31
0.0
  0
POINT
  5
B6
  8
0
  6
BYBLOCK
 62
     0
 10
114.16439361162649
 20
222.9629629984596
 30
0.0
  0
ARC
  5
B7
  8
0
  6
BYBLOCK
 62
     0
 10
-144.6412083883734
 20
285.25640299845958
 30
0.0
 40
292.0
 50
349.7930470000012
 51
351.09629499999892
  0
ARC
  5
B8
  8
0
  6
BYBLOCK
 62
     0
 10
-51.987667388373438
 20
278.24415999845968
 30
0.0
 40
200.0
 50
343.8802979999993
 51
346.82703500000127
  0
ARC
  5
B9
  8
0
  6
BYBLOCK
 62
     0
 10
137.74737061162651
 20
223.40926999845959
 30
0.0
 40
2.5
 50
265.00000000000023
 51
343.8802979999993
  0
ARC
  5
BA
  8
0
  6
BYBLOCK
 62
     0
 10
142.4576926116265
 20
232.73373999845961
 30
0.0
 40
0.3
 50
346.8260949999995
 51
84.999059999999787
  0
LINE
  5
BB
  8
0
  6
BYBLOCK
 62
     0
 10
140.4751686116266
 20
233.4091639984596
 30
0.0
 11
140.45773461162651
 21
233.2099249984596
 31
0.0
  0
LINE
  5
BC
  8
0
  6
BYBLOCK
 62
     0
 10
140.4751686116266
 20
233.4091639984596
 30
0.0
 11
140.20246261162649
 21
233.73417299845971
 31
0.0
  0
ARC
  5
BD
  8
0
  6
BYBLOCK
 62
     0
 10
123.0246666116265
 20
161.9585999984597
 30
0.0
 40
115.0
 50
79.406765999999578
 51
105.5045579999997
  0
LINE
  5
BE
  8
0
  6
BYBLOCK
 62
     0
 10
89.065390611626555
 20
259.6387599984597
 30
0.0
 11
91.131163611626562
 21
259.45802799845961
 31
0.0
  0
LINE
  5
BF
  8
0
  6
BYBLOCK
 62
     0
 10
92.335305611626552
 20
269.59164199845958
 30
0.0
 11
89.954379611626564
 21
269.79994599845958
 31
0.0
  0
POLYLINE
  5
C0
  8
0
  6
BYBLOCK
 62
     0
 66
     1
 10
0.0
 20
0.0
 30
0.0
  0
VERTEX
  5
143
  8
0
  6
BYBLOCK
 62
     0
 10
88.540026611626558
 20
259.33535599845959
 30
0.0
  0
VERTEX
  5
144
  8
0
  6
BYBLOCK
 62
     0
 10
89.760204611626563
 20
259.29745999845971
 30
0.0
  0
VERTEX
  5
145
  8
0
  6
BYBLOCK
 62
     0
 10
90.961193611626584
 20
259.42688199845969
 30
0.0
  0
VERTEX
  5
146
  8
0
  6
BYBLOCK
 62
     0
 10
92.106501611626555
 20
259.71969199845961
 30
0.0
  0
VERTEX
  5
147
  8
0
  6
BYBLOCK
 62
     0
 10
93.161330611626539
 20
260.16699099845971
 30
0.0
  0
VERTEX
  5
148
  8
0
  6
BYBLOCK
 62
     0
 10
94.093628611626528
 20
260.75518999845968
 30
0.0
  0
VERTEX
  5
149
  8
0
  6
BYBLOCK
 62
     0
 10
94.875069611626557
 20
261.4664149984597
 30
0.0
  0
VERTEX
  5
14A
  8
0
  6
BYBLOCK
 62
     0
 10
95.481908611626565
 20
262.27905599845968
 30
0.0
  0
VERTEX
  5
14B
  8
0
  6
BYBLOCK
 62
     0
 10
95.895707611626563
 20
263.16842299845968
 30
0.0
  0
VERTEX
  5
14C
  8
0
  6
BYBLOCK
 62
     0
 10
96.103893611626575
 20
264.10749099845958
 30
0.0
  0
VERTEX
  5
14D
  8
0
  6
BYBLOCK
 62
     0
 10
96.100140611626557
 20
265.06772799845959
 30
0.0
  0
VERTEX
  5
14E
  8
0
  6
BYBLOCK
 62
     0
 10
95.884563611626561
 20
266.01995799845957
 30
0.0
  0
VERTEX
  5
14F
  8
0
  6
BYBLOCK
 62
     0
 10
95.463711611626564
 20
266.93524699845972
 30
0.0
  0
VERTEX
  5
150
  8
0
  6
BYBLOCK
 62
     0
 10
94.850373611626566
 20
267.78578499845958
 30
0.0
  0
VERTEX
  5
151
  8
0
  6
BYBLOCK
 62
     0
 10
94.063183611626584
 20
268.54572899845971
 30
0.0
  0
VERTEX
  5
152
  8
0
  6
BYBLOCK
 62
     0
 10
93.126060611626571
 20
269.19198799845969
 30
0.0
  0
VERTEX
  5
153
  8
0
  6
BYBLOCK
 62
     0
 10
92.067479611626567
 20
269.70492599845971
 30
0.0
  0
VERTEX
  5
154
  8
0
  6
BYBLOCK
 62
     0
 10
90.919604611626553
 20
270.06895699845973
 30
0.0
  0
VERTEX
  5
155
  8
0
  6
BYBLOCK
 62
     0
 10
89.717311611626542
 20
270.27302199845968
 30
0.0
  0
VERTEX
  5
156
  8
0
  6
BYBLOCK
 62
     0
 10
89.608025611626559
 20
270.2832599984597
 30
0.0
  0
SEQEND
  5
157
  8
0
  6
BYBLOCK
 62
     0
  0
ARC
  5
C1
  8
0
  6
BYBLOCK
 62
     0
 10
93.343427611626566
 20
268.9526349984597
 30
0.0
 40
3.9653230000000002
 50
105.5045579999997
 51
160.39307900000139
  0
ARC
  5
C2
  8
0
  6
BYBLOCK
 62
     0
 10
89.152546611626576
 20
260.6349549984597
 30
0.0
 40
1.0
 50
170.3888930000013
 51
265.00000000000023
  0
ARC
  5
C3
  8
0
  6
BYBLOCK
 62
     0
 10
38.86839861162656
 20
269.14990899845969
 30
0.0
 40
50.0
 50
350.3888930000013
 51
359.61110699999938
  0
ARC
  5
C4
  8
0
  6
BYBLOCK
 62
     0
 10
89.867223611626571
 20
268.80375099845958
 30
0.0
 40
1.0
 50
85.000000000000213
 51
179.61110699999941
  0
ARC
  5
C5
  8
0
  6
BYBLOCK
 62
     0
 10
343.48877961162651
 20
-119.3326410015403
 30
0.0
 40
200.0
 50
80.290237000000474
 51
91.949892999999619
  0
LINE
  5
C6
  8
0
  6
BYBLOCK
 62
     0
 10
344.26874461162657
 20
75.552999998459654
 30
0.0
 11
336.76874461162657
 21
75.552999998459654
 31
0.0
  0
ARC
  5
C7
  8
0
  6
BYBLOCK
 62
     0
 10
341.67123261162652
 20
251.8956579984596
 30
0.0
 40
2.0
 50
106.8464419999997
 51
197.56027200000079
  0
ARC
  5
C8
  8
0
  6
BYBLOCK
 62
     0
 10
340.50464461162659
 20
277.7064399984597
 30
0.0
 40
29.0
 50
243.43494900000061
 51
270.0
  0
ARC
  5
C9
  8
0
  6
BYBLOCK
 62
     0
 10
345.99858461162648
 20
268.70643999845959
 30
0.0
 40
37.0
 50
240.2145409999998
 51
270.0
  0
LINE
  5
CA
  8
0
  6
BYBLOCK
 62
     0
 10
339.7644326116266
 20
251.29223999845959
 30
0.0
 11
340.58272361162648
 21
248.7064399984597
 31
0.0
  0
ARC
  5
CB
  8
0
  6
BYBLOCK
 62
     0
 10
299.04734061162662
 20
91.263612998459621
 30
0.0
 40
50.0
 50
10.12450199999909
 51
57.000000000000227
  0
LINE
  5
CC
  8
0
  6
BYBLOCK
 62
     0
 10
345.24775861162652
 20
163.4492009984597
 30
0.0
 11
233.54242061162651
 21
233.25044399845959
 31
0.0
  0
LINE
  5
CD
  8
0
  6
BYBLOCK
 62
     0
 10
267.4291936116266
 20
271.04502399845961
 30
0.0
 11
327.61869761162649
 21
236.59445299845959
 31
0.0
  0
LINE
  5
CE
  8
0
  6
BYBLOCK
 62
     0
 10
233.14489261162649
 20
233.5578059984596
 30
0.0
 11
193.7720036116265
 21
256.52561499845962
 31
0.0
  0
LINE
  5
CF
  8
0
  6
BYBLOCK
 62
     0
 10
215.83117361162661
 20
204.92298899845969
 30
0.0
 11
326.2792916116266
 21
133.19714199845961
 31
0.0
  0
LINE
  5
D0
  8
0
  6
BYBLOCK
 62
     0
 10
178.3727546116265
 20
229.8777509984597
 30
0.0
 11
215.39259761162651
 21
205.1481939984597
 31
0.0
  0
LINE
  5
D1
  8
0
  6
BYBLOCK
 62
     0
 10
215.39259761162651
 20
205.1481939984597
 30
0.0
 11
233.14489261162649
 21
233.5578059984596
 31
0.0
  0
ARC
  5
D2
  8
0
  6
BYBLOCK
 62
     0
 10
216.10349261162651
 20
205.3423239984597
 30
0.0
 40
0.5
 50
148.0000019999982
 51
237.0000000000002
  0
ARC
  5
D3
  8
0
  6
BYBLOCK
 62
     0
 10
233.27746061162651
 20
232.8264189984597
 30
0.0
 40
0.5
 50
58.000000000001172
 51
148.0000019999982
  0
ARC
  5
D4
  8
0
  6
BYBLOCK
 62
     0
 10
336.76874461162657
 20
78.052999998459654
 30
0.0
 40
2.5
 50
91.949892999999619
 51
270.0
  0
ARC
  5
D5
  8
0
  6
BYBLOCK
 62
     0
 10
247.65867361162651
 20
277.7064399984597
 30
0.0
 40
2.5
 50
180.0
 51
270.0
  0
ARC
  5
D6
  8
0
  6
BYBLOCK
 62
     0
 10
247.65867361162651
 20
282.2064399984597
 30
0.0
 40
2.5
 50
90.0
 51
180.0
  0
LINE
  5
D7
  8
0
  6
BYBLOCK
 62
     0
 10
245.15867361162651
 20
282.2064399984597
 30
0.0
 11
245.15867361162651
 21
277.7064399984597
 31
0.0
  0
LINE
  5
D8
  8
0
  6
BYBLOCK
 62
     0
 10
327.53545061162652
 20
251.76805199845961
 30
0.0
 11
270.5267896116265
 21
280.27238199845959
 31
0.0
  0
ARC
  5
D9
  8
0
  6
BYBLOCK
 62
     0
 10
251.74381861162649
 20
242.7064399984597
 30
0.0
 40
42.0
 50
63.434949000000628
 51
90.0
  0
ARC
  5
DA
  8
0
  6
BYBLOCK
 62
     0
 10
251.78145161162649
 20
243.70643999845959
 30
0.0
 40
31.5
 50
60.214540999999919
 51
90.0
  0
LINE
  5
DB
  8
0
  6
BYBLOCK
 62
     0
 10
247.65867361162651
 20
275.20643999845959
 30
0.0
 11
251.78145161162649
 21
275.20643999845959
 31
0.0
  0
LINE
  5
DC
  8
0
  6
BYBLOCK
 62
     0
 10
247.65867361162651
 20
284.7064399984597
 30
0.0
 11
251.74381861162649
 21
284.7064399984597
 31
0.0
  0
LINE
  5
DD
  8
0
  6
BYBLOCK
 62
     0
 10
399.75993961162652
 20
248.7064399984597
 30
0.0
 11
397.7950686116265
 21
226.53147199845969
 31
0.0
  0
LINE
  5
DE
  8
0
  6
BYBLOCK
 62
     0
 10
400.26874461162657
 20
95.352999998459595
 30
0.0
 11
400.26874461162657
 21
164.75299999845959
 31
0.0
  0
ARC
  5
DF
  8
0
  6
BYBLOCK
 62
     0
 10
382.76874461162657
 20
60.552999998459647
 30
0.0
 40
17.5
 50
270.0
 51
90.0
  0
ARC
  5
E0
  8
0
  6
BYBLOCK
 62
     0
 10
374.26874461162657
 20
60.552999998459647
 30
0.0
 40
17.5
 50
147.04388899999901
 51
80.290237000000474
  0
LINE
  5
E1
  8
0
  6
BYBLOCK
 62
     0
 10
348.26874461162657
 20
17.852999998459659
 30
0.0
 11
400.26874461162657
 21
17.852999998459659
 31
0.0
  0
LINE
  5
E2
  8
0
  6
BYBLOCK
 62
     0
 10
399.26874461162657
 20
14.552999998459651
 30
0.0
 11
349.26874461162657
 21
14.552999998459651
 31
0.0
  0
LINE
  5
E3
  8
0
  6
BYBLOCK
 62
     0
 10
348.56874461162658
 20
17.552999998459651
 30
0.0
 11
399.96874461162651
 21
17.552999998459651
 31
0.0
  0
LINE
  5
E4
  8
0
  6
BYBLOCK
 62
     0
 10
348.56874461162658
 20
17.552999998459651
 30
0.0
 11
399.96874461162651
 21
17.552999998459651
 31
0.0
  0
LINE
  5
E5
  8
0
  6
BYBLOCK
 62
     0
 10
348.31874461162653
 20
95.052999998459654
 30
0.0
 11
400.21874461162651
 21
95.052999998459654
 31
0.0
  0
LINE
  5
E6
  8
0
  6
BYBLOCK
 62
     0
 10
400.21874461162651
 20
94.552999998459654
 30
0.0
 11
348.31874461162653
 21
94.552999998459654
 31
0.0
  0
LINE
  5
E7
  8
0
  6
BYBLOCK
 62
     0
 10
348.26874461162657
 20
94.2529999984597
 30
0.0
 11
400.26874461162657
 21
94.2529999984597
 31
0.0
  0
LINE
  5
E8
  8
0
  6
BYBLOCK
 62
     0
 10
348.26874461162657
 20
75.552999998459654
 30
0.0
 11
348.26874461162657
 21
17.852999998459659
 31
0.0
  0
LINE
  5
E9
  8
0
  6
BYBLOCK
 62
     0
 10
349.26874461162657
 20
17.552999998459651
 30
0.0
 11
349.26874461162657
 21
14.552999998459651
 31
0.0
  0
LINE
  5
EA
  8
0
  6
BYBLOCK
 62
     0
 10
348.26874461162657
 20
17.852999998459659
 30
0.0
 11
348.56874461162658
 21
17.552999998459651
 31
0.0
  0
LINE
  5
EB
  8
0
  6
BYBLOCK
 62
     0
 10
374.26874461162657
 20
43.052999998459647
 30
0.0
 11
382.76874461162657
 21
43.052999998459647
 31
0.0
  0
ARC
  5
EC
  8
0
  6
BYBLOCK
 62
     0
 10
374.26874461162657
 20
60.552999998459647
 30
0.0
 40
17.5
 50
101.24992999999959
 51
137.62179900000041
  0
ARC
  5
ED
  8
0
  6
BYBLOCK
 62
     0
 10
344.26874461162657
 20
-24.447000001540282
 30
0.0
 40
100.0
 50
82.417975000000723
 51
90.0
  0
ARC
  5
EE
  8
0
  6
BYBLOCK
 62
     0
 10
357.0674506116265
 20
71.704926998459769
 30
0.0
 40
3.0
 50
327.0438889999989
 51
82.417975000000723
  0
LINE
  5
EF
  8
0
  6
BYBLOCK
 62
     0
 10
348.26874461162657
 20
94.2529999984597
 30
0.0
 11
348.26874461162657
 21
80.61023099845977
 31
0.0
  0
LINE
  5
F0
  8
0
  6
BYBLOCK
 62
     0
 10
348.56874461162658
 20
94.552999998459654
 30
0.0
 11
348.26874461162657
 21
94.2529999984597
 31
0.0
  0
ARC
  5
F1
  8
0
  6
BYBLOCK
 62
     0
 10
348.56874461162658
 20
95.352999998459595
 30
0.0
 40
0.3
 50
180.0
 51
270.0
  0
LINE
  5
F2
  8
0
  6
BYBLOCK
 62
     0
 10
348.26874461162657
 20
100.0529999984596
 30
0.0
 11
348.26874461162657
 21
95.352999998459595
 31
0.0
  0
LINE
  5
F3
  8
0
  6
BYBLOCK
 62
     0
 10
348.31874461162653
 20
95.052999998459654
 30
0.0
 11
348.31874461162653
 21
94.552999998459654
 31
0.0
  0
CIRCLE
  5
F4
  8
0
  6
BYBLOCK
 62
     0
 10
374.26874461162657
 20
60.552999998459647
 30
0.0
 40
7.0
  0
ARC
  5
F5
  8
0
  6
BYBLOCK
 62
     0
 10
381.71899361162639
 20
60.552999998459647
 30
0.0
 40
0.75
 50
266.84514700000028
 51
90.0
  0
LINE
  5
F6
  8
0
  6
BYBLOCK
 62
     0
 10
381.71899361162639
 20
59.802999998459647
 30
0.0
 11
381.22845061162661
 21
59.802999998459647
 31
0.0
  0
LINE
  5
F7
  8
0
  6
BYBLOCK
 62
     0
 10
381.71899361162639
 20
61.302999998459647
 30
0.0
 11
381.22845061162661
 21
61.302999998459647
 31
0.0
  0
LINE
  5
F8
  8
0
  6
BYBLOCK
 62
     0
 10
375.72088861162661
 20
78.052999998459654
 30
0.0
 11
382.76874461162657
 21
78.052999998459654
 31
0.0
  0
LINE
  5
F9
  8
0
  6
BYBLOCK
 62
     0
 10
400.26874461162657
 20
94.2529999984597
 30
0.0
 11
400.26874461162657
 21
17.852999998459659
 31
0.0
  0
LINE
  5
FA
  8
0
  6
BYBLOCK
 62
     0
 10
399.26874461162657
 20
17.552999998459651
 30
0.0
 11
399.26874461162657
 21
14.552999998459651
 31
0.0
  0
LINE
  5
FB
  8
0
  6
BYBLOCK
 62
     0
 10
399.96874461162651
 20
17.552999998459651
 30
0.0
 11
400.26874461162657
 21
17.852999998459659
 31
0.0
  0
LINE
  5
FC
  8
0
  6
BYBLOCK
 62
     0
 10
400.26874461162657
 20
94.2529999984597
 30
0.0
 11
399.96874461162651
 21
94.552999998459654
 31
0.0
  0
ARC
  5
FD
  8
0
  6
BYBLOCK
 62
     0
 10
399.96874461162651
 20
95.352999998459595
 30
0.0
 40
0.3
 50
270.0
 51
0.0
  0
LINE
  5
FE
  8
0
  6
BYBLOCK
 62
     0
 10
400.21874461162651
 20
95.052999998459654
 30
0.0
 11
400.21874461162651
 21
94.552999998459654
 31
0.0
  0
LINE
  5
FF
  8
0
  6
BYBLOCK
 62
     0
 10
348.56874461162658
 20
165.0529999984596
 30
0.0
 11
399.96874461162651
 21
165.0529999984596
 31
0.0
  0
LINE
  5
100
  8
0
  6
BYBLOCK
 62
     0
 10
348.5688016116265
 20
165.85300499845971
 30
0.0
 11
399.96868861162648
 21
165.85300499845971
 31
0.0
  0
LINE
  5
101
  8
0
  6
BYBLOCK
 62
     0
 10
397.53175561162652
 20
226.13412899845969
 30
0.0
 11
374.26874461162657
 21
213.76496699845961
 31
0.0
  0
LINE
  5
102
  8
0
  6
BYBLOCK
 62
     0
 10
395.64201161162657
 20
210.35300499845971
 30
0.0
 11
352.89547861162657
 21
210.35300499845971
 31
0.0
  0
LINE
  5
103
  8
0
  6
BYBLOCK
 62
     0
 10
351.01874461162657
 20
209.04428799845971
 30
0.0
 11
348.26880161162649
 21
166.15300499845969
 31
0.0
  0
ARC
  5
104
  8
0
  6
BYBLOCK
 62
     0
 10
346.30759661162648
 20
165.1452979984596
 30
0.0
 40
2.0
 50
238.00000000000111
 51
348.68814900000029
  0
LINE
  5
105
  8
0
  6
BYBLOCK
 62
     0
 10
348.26874461162657
 20
164.75299999845959
 30
0.0
 11
348.56874461162658
 21
165.0529999984596
 31
0.0
  0
LINE
  5
106
  8
0
  6
BYBLOCK
 62
     0
 10
348.5688016116265
 20
165.85300499845971
 30
0.0
 11
348.26880161162649
 21
166.15300499845969
 31
0.0
  0
LINE
  5
107
  8
0
  6
BYBLOCK
 62
     0
 10
351.76874461162657
 20
165.0529999984596
 30
0.0
 11
351.76874461162657
 21
165.85300499845971
 31
0.0
  0
LINE
  5
108
  8
0
  6
BYBLOCK
 62
     0
 10
368.15867361162651
 20
231.7064399984597
 30
0.0
 11
345.99858461162648
 21
231.7064399984597
 31
0.0
  0
LINE
  5
109
  8
0
  6
BYBLOCK
 62
     0
 10
352.02488461162648
 20
213.7064399984597
 30
0.0
 11
374.03400961162652
 21
213.7064399984597
 31
0.0
  0
LINE
  5
10A
  8
0
  6
BYBLOCK
 62
     0
 10
352.17483661162652
 20
213.7064399984597
 30
0.0
 11
373.90934561162652
 21
213.7064399984597
 31
0.0
  0
ARC
  5
10B
  8
0
  6
BYBLOCK
 62
     0
 10
352.02488461162648
 20
214.20643999845959
 30
0.0
 40
0.5
 50
197.56027200000079
 51
270.0
  0
ARC
  5
10C
  8
0
  6
BYBLOCK
 62
     0
 10
352.89547861162657
 20
208.35300499845971
 30
0.0
 40
2.0
 50
90.0
 51
159.77903300000099
  0
LINE
  5
10D
  8
0
  6
BYBLOCK
 62
     0
 10
345.9624706116266
 20
231.7064399984597
 30
0.0
 11
351.54818461162648
 21
214.05558599845969
 31
0.0
  0
ARC
  5
10E
  8
0
  6
BYBLOCK
 62
     0
 10
368.7674186116264
 20
211.65353499845969
 30
0.0
 40
15.0
 50
172.9232219999999
 51
180.0
  0
LINE
  5
10F
  8
0
  6
BYBLOCK
 62
     0
 10
353.76741861162651
 20
210.35300499845971
 30
0.0
 11
353.76741861162651
 21
211.65353499845969
 31
0.0
  0
ARC
  5
110
  8
0
  6
BYBLOCK
 62
     0
 10
368.15867361162651
 20
225.7064399984597
 30
0.0
 40
6.0
 50
0.0
 51
90.0
  0
ARC
  5
111
  8
0
  6
BYBLOCK
 62
     0
 10
374.03400961162652
 20
214.20643999845959
 30
0.0
 40
0.5
 50
270.0
 51
297.99999999999869
  0
LINE
  5
112
  8
0
  6
BYBLOCK
 62
     0
 10
397.51874461162657
 20
209.04428799845971
 30
0.0
 11
400.26868861162649
 21
166.15300499845969
 31
0.0
  0
LINE
  5
113
  8
0
  6
BYBLOCK
 62
     0
 10
396.76874461162657
 20
165.0529999984596
 30
0.0
 11
396.76874461162657
 21
165.85300499845971
 31
0.0
  0
LINE
  5
114
  8
0
  6
BYBLOCK
 62
     0
 10
399.96874461162651
 20
165.0529999984596
 30
0.0
 11
400.26874461162657
 21
164.75299999845959
 31
0.0
  0
LINE
  5
115
  8
0
  6
BYBLOCK
 62
     0
 10
399.96868861162648
 20
165.85300499845971
 30
0.0
 11
400.26868861162649
 21
166.15300499845969
 31
0.0
  0
ARC
  5
116
  8
0
  6
BYBLOCK
 62
     0
 10
379.77007161162652
 20
211.65353499845969
 30
0.0
 40
15.0
 50
0.0
 51
45.245504000001183
  0
ARC
  5
117
  8
0
  6
BYBLOCK
 62
     0
 10
395.64201161162657
 20
208.35300499845971
 30
0.0
 40
2.0
 50
20.220966999998939
 51
90.0
  0
LINE
  5
118
  8
0
  6
BYBLOCK
 62
     0
 10
394.77007161162658
 20
210.35300499845971
 30
0.0
 11
394.77007161162658
 21
211.65353499845969
 31
0.0
  0
ARC
  5
119
  8
0
  6
BYBLOCK
 62
     0
 10
397.29701961162658
 20
226.5756019984596
 30
0.0
 40
0.5
 50
297.99999999999869
 51
354.9363829999985
  0
ARC
  5
11A
  8
0
  6
BYBLOCK
 62
     0
 10
374.15867361162651
 20
194.5064399984596
 30
0.0
 40
64.200000000000003
 50
67.423186999999473
 51
90.0
  0
LINE
  5
11B
  8
0
  6
BYBLOCK
 62
     0
 10
399.75993961162652
 20
248.7064399984597
 30
0.0
 11
340.50464461162659
 21
248.7064399984597
 31
0.0
  0
LINE
  5
11C
  8
0
  6
BYBLOCK
 62
     0
 10
340.16065361162651
 20
253.2064399984597
 30
0.0
 11
399.58636861162648
 21
253.2064399984597
 31
0.0
  0
ARC
  5
11D
  8
0
  6
BYBLOCK
 62
     0
 10
374.15867361162651
 20
144.60643999845959
 30
0.0
 40
114.09999999999999
 50
90.0
 51
106.8464419999997
  0
ARC
  5
11E
  8
0
  6
BYBLOCK
 62
     0
 10
398.03860161162652
 20
251.93978399845969
 30
0.0
 40
2.0
 50
354.9363829999985
 51
67.423186999999473
  0
LINE
  5
11F
  8
0
  6
BYBLOCK
 62
     0
 10
399.75993961162652
 20
248.7064399984597
 30
0.0
 11
400.0307966116265
 21
251.76326099845971
 31
0.0
  0
ENDSEC
  0
EOF
