  0
SECTION
  2
HEADER
  9
$ACADVER
  1
AC1014
  9
$ACADMAINTVER
 70
     9
  9
$DWGCODEPAGE
  3
ANSI_932
  9
$INSBASE
 10
701.0045439333493
 20
293.3618769999999
 30
0.0
  9
$EXTMIN
 10
405.3238552241713
 20
288.537605021384
 30
0.0
  9
$EXTMAX
 10
728.7546517364612
 20
565.5599757597407
 30
0.0
  9
$LIMMIN
 10
36.0
 20
25.5
  9
$LIMMAX
 10
1224.0
 20
865.4999999999999
  9
$ORTHOMODE
 70
     1
  9
$REGENMODE
 70
     1
  9
$FILLMODE
 70
     1
  9
$QTEXTMODE
 70
     0
  9
$MIRRTEXT
 70
     0
  9
$DRAGMODE
 70
     2
  9
$LTSCALE
 40
2.0
  9
$OSMODE
 70
   513
  9
$ATTMODE
 70
     1
  9
$TEXTSIZE
 40
0.2
  9
$TRACEWID
 40
0.05
  9
$TEXTSTYLE
  7
ｽﾀｲﾙ1
  9
$CLAYER
  8
0
  9
$CELTYPE
  6
CONTINUOUS
  9
$CECOLOR
 62
   256
  9
$CELTSCALE
 40
1.0
  9
$DELOBJ
 70
     1
  9
$DISPSILH
 70
     0
  9
$DIMSCALE
 40
3.0
  9
$DIMASZ
 40
2.0
  9
$DIMEXO
 40
2.0
  9
$DIMDLI
 40
7.0
  9
$DIMRND
 40
0.0
  9
$DIMDLE
 40
0.0
  9
$DIMEXE
 40
0.5
  9
$DIMTP
 40
0.0
  9
$DIMTM
 40
0.0
  9
$DIMTXT
 40
2.0
  9
$DIMCEN
 40
0.09
  9
$DIMTSZ
 40
0.0
  9
$DIMTOL
 70
     0
  9
$DIMLIM
 70
     0
  9
$DIMTIH
 70
     0
  9
$DIMTOH
 70
     0
  9
$DIMSE1
 70
     0
  9
$DIMSE2
 70
     0
  9
$DIMTAD
 70
     1
  9
$DIMZIN
 70
     8
  9
$DIMBLK
  1
OPEN
  9
$DIMASO
 70
     1
  9
$DIMSHO
 70
     1
  9
$DIMPOST
  1

  9
$DIMAPOST
  1

  9
$DIMALT
 70
     0
  9
$DIMALTD
 70
     2
  9
$DIMALTF
 40
0.03937
  9
$DIMLFAC
 40
1.0
  9
$DIMTOFL
 70
     1
  9
$DIMTVP
 40
0.0
  9
$DIMTIX
 70
     0
  9
$DIMSOXD
 70
     0
  9
$DIMSAH
 70
     0
  9
$DIMBLK1
  1

  9
$DIMBLK2
  1

  9
$DIMSTYLE
  2
G1
  9
$DIMCLRD
 70
     0
  9
$DIMCLRE
 70
     0
  9
$DIMCLRT
 70
     7
  9
$DIMTFAC
 40
1.0
  9
$DIMGAP
 40
0.8
  9
$DIMJUST
 70
     0
  9
$DIMSD1
 70
     0
  9
$DIMSD2
 70
     0
  9
$DIMTOLJ
 70
     1
  9
$DIMTZIN
 70
     0
  9
$DIMALTZ
 70
     0
  9
$DIMALTTZ
 70
     0
  9
$DIMFIT
 70
     3
  9
$DIMUPT
 70
     0
  9
$DIMUNIT
 70
     2
  9
$DIMDEC
 70
     2
  9
$DIMTDEC
 70
     2
  9
$DIMALTU
 70
     2
  9
$DIMALTTD
 70
     2
  9
$DIMTXSTY
  7
STANDARD
  9
$DIMAUNIT
 70
     0
  9
$LUNITS
 70
     2
  9
$LUPREC
 70
     4
  9
$SKETCHINC
 40
0.1
  9
$FILLETRAD
 40
5.0
  9
$AUNITS
 70
     0
  9
$AUPREC
 70
     0
  9
$MENU
  1
.
  9
$ELEVATION
 40
0.0
  9
$PELEVATION
 40
0.0
  9
$THICKNESS
 40
0.0
  9
$LIMCHECK
 70
     0
  9
$BLIPMODE
 70
     0
  9
$CHAMFERA
 40
0.0
  9
$CHAMFERB
 40
0.0
  9
$CHAMFERC
 40
0.0
  9
$CHAMFERD
 40
0.0
  9
$SKPOLY
 70
     0
  9
$TDCREATE
 40
2452110.000000000
  9
$TDUPDATE
 40
2453944.012421874
  9
$TDINDWG
 40
0.3301755787
  9
$TDUSRTIMER
 40
0.3301754051
  9
$USRTIMER
 70
     1
  9
$ANGBASE
 50
0.0
  9
$ANGDIR
 70
     0
  9
$PDMODE
 70
     3
  9
$PDSIZE
 40
0.0
  9
$PLINEWID
 40
0.0
  9
$COORDS
 70
     1
  9
$SPLFRAME
 70
     0
  9
$SPLINETYPE
 70
     6
  9
$SPLINESEGS
 70
     8
  9
$ATTDIA
 70
     0
  9
$ATTREQ
 70
     1
  9
$HANDLING
 70
 10241
  9
$HANDSEED
  5
109
  9
$SURFTAB1
 70
     6
  9
$SURFTAB2
 70
     6
  9
$SURFTYPE
 70
     6
  9
$SURFU
 70
     6
  9
$SURFV
 70
     6
  9
$UCSNAME
  2

  9
$UCSORG
 10
0.0
 20
0.0
 30
0.0
  9
$UCSXDIR
 10
1.0
 20
0.0
 30
0.0
  9
$UCSYDIR
 10
0.0
 20
1.0
 30
0.0
  9
$PUCSNAME
  2

  9
$PUCSORG
 10
0.0
 20
0.0
 30
0.0
  9
$PUCSXDIR
 10
1.0
 20
0.0
 30
0.0
  9
$PUCSYDIR
 10
0.0
 20
1.0
 30
0.0
  9
$USERI1
 70
     0
  9
$USERI2
 70
     0
  9
$USERI3
 70
     0
  9
$USERI4
 70
     0
  9
$USERI5
 70
     0
  9
$USERR1
 40
0.0
  9
$USERR2
 40
0.0
  9
$USERR3
 40
0.0
  9
$USERR4
 40
0.0
  9
$USERR5
 40
0.0
  9
$WORLDVIEW
 70
     1
  9
$SHADEDGE
 70
     3
  9
$SHADEDIF
 70
    70
  9
$TILEMODE
 70
     1
  9
$MAXACTVP
 70
    48
  9
$PINSBASE
 10
0.0
 20
0.0
 30
0.0
  9
$PLIMCHECK
 70
     0
  9
$PEXTMIN
 10
1.000000000000000E+20
 20
1.000000000000000E+20
 30
1.000000000000000E+20
  9
$PEXTMAX
 10
-1.000000000000000E+20
 20
-1.000000000000000E+20
 30
-1.000000000000000E+20
  9
$PLIMMIN
 10
0.0
 20
0.0
  9
$PLIMMAX
 10
12.0
 20
9.0
  9
$UNITMODE
 70
     0
  9
$VISRETAIN
 70
     1
  9
$PLINEGEN
 70
     0
  9
$PSLTSCALE
 70
     1
  9
$TREEDEPTH
 70
  3020
  9
$PICKSTYLE
 70
     1
  9
$CMLSTYLE
  2
STANDARD
  9
$CMLJUST
 70
     0
  9
$CMLSCALE
 40
1.0
  9
$PROXYGRAPHICS
 70
     1
  9
$MEASUREMENT
 70
     0
  0
ENDSEC
  0
SECTION
  2
CLASSES
  0
CLASS
  1
ACDBDICTIONARYWDFLT
  2
AcDbDictionaryWithDefault
  3
AutoCAD 2000
 90
        0
280
     0
281
     0
  0
CLASS
  1
ACDBPLACEHOLDER
  2
AcDbPlaceHolder
  3
AutoCAD 2000
 90
        0
280
     0
281
     0
  0
CLASS
  1
LAYOUT
  2
AcDbLayout
  3
AutoCAD 2000
 90
        0
280
     0
281
     0
  0
CLASS
  1
TABLESTYLE
  2
AcDbTableStyle
  3
ObjectDBX Classes
 90
     2047
280
     0
281
     0
  0
CLASS
  1
SORTENTSTABLE
  2
AcDbSortentsTable
  3
AutoCAD 2000
 90
        0
280
     0
281
     0
  0
CLASS
  1
DICTIONARYVAR
  2
AcDbDictionaryVar
  3
AutoCAD 2000
 90
        0
280
     0
281
     0
  0
CLASS
  1
ACAD_PROXY_OBJECT_WRAPPER
  2
AcDbProxyObjectWrapper
  3
AutoCAD 2000
 90
        0
280
     0
281
     0
  0
CLASS
  1
LONG_TRANSACTION
  2
AcDbLongTransaction
  3
AutoCAD 2000
 90
        0
280
     0
281
     0
  0
CLASS
  1
LWPOLYLINE
  2
AcDbPolyline
  3
AutoCAD 2000
 90
        0
280
     0
281
     1
  0
CLASS
  1
HATCH
  2
AcDbHatch
  3
AutoCAD 2000
 90
        0
280
     0
281
     1
  0
CLASS
  1
XRECORD
  2
AcDbXrecord
  3
AutoCAD 2000
 90
        0
280
     0
281
     0
  0
CLASS
  1
LONG_TRANSACTION
  2
AcDbLongTransaction
  3
AutoCAD 2000
 90
        0
280
     0
281
     0
  0
CLASS
  1
LWPOLYLINE
  2
AcDbPolyline
  3
AutoCAD 2000
 90
        0
280
     0
281
     1
  0
CLASS
  1
HATCH
  2
AcDbHatch
  3
AutoCAD 2000
 90
        0
280
     0
281
     1
  0
CLASS
  1
XRECORD
  2
AcDbXrecord
  3
AutoCAD 2000
 90
        0
280
     0
281
     0
  0
ENDSEC
  0
SECTION
  2
TABLES
  0
TABLE
  2
VPORT
  5
23
330
0
100
AcDbSymbolTable
 70
     2
  0
VPORT
  5
E5
330
23
100
AcDbSymbolTableRecord
100
AcDbViewportTableRecord
  2
*ACTIVE
 70
     0
 10
0.0
 20
0.0
 11
1.0
 21
1.0
 12
574.4240426552905
 22
428.1324482246215
 13
0.0
 23
0.0
 14
1.0
 24
1.0
 15
0.0
 25
0.0
 16
0.0
 26
0.0
 36
1.0
 17
0.0
 27
0.0
 37
0.0
 40
272.9255141538088
 41
1.933867735470941
 42
50.0
 43
0.0
 44
0.0
 50
0.0
 51
0.0
 71
     0
 72
   100
 73
     1
 74
     1
 75
     0
 76
     0
 77
     0
 78
     0
  0
ENDTAB
  0
TABLE
  2
LTYPE
  5
1E
330
0
100
AcDbSymbolTable
 70
     1
  0
LTYPE
  5
1F
330
1E
100
AcDbSymbolTableRecord
100
AcDbLinetypeTableRecord
  2
BYBLOCK
 70
     0
  3

 72
    65
 73
     0
 40
0.0
  0
LTYPE
  5
20
330
1E
100
AcDbSymbolTableRecord
100
AcDbLinetypeTableRecord
  2
BYLAYER
 70
     0
  3

 72
    65
 73
     0
 40
0.0
  0
LTYPE
  5
C
330
1E
100
AcDbSymbolTableRecord
100
AcDbLinetypeTableRecord
  2
CONTINUOUS
 70
     0
  3
Solid line
 72
    65
 73
     0
 40
0.0
  0
ENDTAB
  0
TABLE
  2
LAYER
  5
17
102
{ACAD_XDICTIONARY
360
18
102
}
330
0
100
AcDbSymbolTable
 70
     2
  0
LAYER
  5
7
330
17
100
AcDbSymbolTableRecord
100
AcDbLayerTableRecord
  2
0
 70
     0
 62
     7
  6
CONTINUOUS
  0
LAYER
  5
39
330
17
100
AcDbSymbolTableRecord
100
AcDbLayerTableRecord
  2
OUTLINE
 70
     0
 62
     7
  6
CONTINUOUS
1001
ACAECLAYERSTANDARD
1000

1000

  0
ENDTAB
  0
TABLE
  2
STYLE
  5
1B
330
0
100
AcDbSymbolTable
 70
     2
  0
STYLE
  5
1C
330
1B
100
AcDbSymbolTableRecord
100
AcDbTextStyleTableRecord
  2
STANDARD
 70
     0
 40
0.0
 41
1.0
 50
0.0
 71
     0
 42
0.2
  3
romans.shx
  4
bigfont.shx
  0
STYLE
  5
35
330
1B
100
AcDbSymbolTableRecord
100
AcDbTextStyleTableRecord
  2
ｽﾀｲﾙ1
 70
     0
 40
0.0
 41
1.0
 50
0.0
 71
     0
 42
0.2
  3
MS PGothic.ttf
  4

1001
ACAD
1000
MS PGothic
1071
    32818
  0
ENDTAB
  0
TABLE
  2
VIEW
  5
21
330
0
100
AcDbSymbolTable
 70
     0
  0
ENDTAB
  0
TABLE
  2
UCS
  5
22
330
0
100
AcDbSymbolTable
 70
     0
  0
ENDTAB
  0
TABLE
  2
APPID
  5
25
330
0
100
AcDbSymbolTable
 70
     3
  0
APPID
  5
B
330
25
100
AcDbSymbolTableRecord
100
AcDbRegAppTableRecord
  2
ACAD
 70
     0
  0
APPID
  5
3A
330
25
100
AcDbSymbolTableRecord
100
AcDbRegAppTableRecord
  2
ACAECLAYERSTANDARD
 70
     0
  0
APPID
  5
10
330
25
100
AcDbSymbolTableRecord
100
AcDbRegAppTableRecord
  2
ACAD_PSEXT
 70
     0
  0
ENDTAB
  0
TABLE
  2
DIMSTYLE
  5
26
330
0
100
AcDbSymbolTable
 70
     1
  0
DIMSTYLE
105
27
330
26
100
AcDbSymbolTableRecord
100
AcDbDimStyleTableRecord
  2
G1
 70
     0
  3

  4

  5
OPEN
  6

  7

 40
3.0
 41
2.0
 42
2.0
 43
7.0
 44
0.5
 45
0.0
 46
0.0
 47
0.0
 48
0.0
140
2.0
141
0.09
142
0.0
143
0.03937
144
1.0
145
0.0
146
1.0
147
0.8
 71
     0
 72
     0
 73
     0
 74
     0
 75
     0
 76
     0
 77
     1
 78
     8
170
     0
171
     2
172
     1
173
     0
174
     0
175
     0
176
     0
177
     0
178
     7
270
     2
271
     2
272
     2
273
     2
274
     2
340
1C
275
     0
280
     0
281
     0
282
     0
283
     1
284
     0
285
     0
286
     0
287
     3
288
     0
  0
ENDTAB
  0
TABLE
  2
BLOCK_RECORD
  5
1
330
0
100
AcDbSymbolTable
 70
     1
  0
BLOCK_RECORD
  5
2
102
{ACAD_XDICTIONARY
360
3
102
}
330
1
100
AcDbSymbolTableRecord
100
AcDbBlockTableRecord
  2
*MODEL_SPACE
  0
BLOCK_RECORD
  5
11
102
{ACAD_XDICTIONARY
360
12
102
}
330
1
100
AcDbSymbolTableRecord
100
AcDbBlockTableRecord
  2
*PAPER_SPACE
  0
BLOCK_RECORD
  5
28
330
1
100
AcDbSymbolTableRecord
100
AcDbBlockTableRecord
  2
_OPEN
  0
ENDTAB
  0
ENDSEC
  0
SECTION
  2
BLOCKS
  0
BLOCK
  5
6
330
2
100
AcDbEntity
  8
0
100
AcDbBlockBegin
  2
*MODEL_SPACE
 70
     0
 10
0.0
 20
0.0
 30
0.0
  3
*MODEL_SPACE
  1

  0
ENDBLK
  5
D
330
2
100
AcDbEntity
  8
0
100
AcDbBlockEnd
  0
BLOCK
  5
14
330
11
100
AcDbEntity
 67
     1
  8
0
100
AcDbBlockBegin
  2
*PAPER_SPACE
 70
     0
 10
0.0
 20
0.0
 30
0.0
  3
*PAPER_SPACE
  1

  0
ENDBLK
  5
15
330
11
100
AcDbEntity
 67
     1
  8
0
100
AcDbBlockEnd
  0
BLOCK
  5
29
330
28
100
AcDbEntity
  8
0
100
AcDbBlockBegin
  2
_OPEN
 70
     0
 10
0.0
 20
0.0
 30
0.0
  3
_OPEN
  1

  0
LINE
  5
2A
330
28
100
AcDbEntity
  8
0
 62
     0
100
AcDbLine
 10
-0.9659259999999999
 20
0.258819
 30
0.0
 11
0.0
 21
0.0
 31
0.0
  0
LINE
  5
2B
330
28
100
AcDbEntity
  8
0
 62
     0
100
AcDbLine
 10
0.0
 20
0.0
 30
0.0
 11
-0.9659259999999999
 21
-0.258819
 31
0.0
  0
LINE
  5
2C
330
28
100
AcDbEntity
  8
0
 62
     0
100
AcDbLine
 10
0.0
 20
0.0
 30
0.0
 11
-1.0
 21
0.0
 31
0.0
  0
ENDBLK
  5
2D
330
28
100
AcDbEntity
  8
0
100
AcDbBlockEnd
  0
ENDSEC
  0
SECTION
  2
ENTITIES
  0
LINE
  5
38
330
2
100
AcDbEntity
  8
OUTLINE
100
AcDbLine
 10
727.0045439333491
 20
441.3618769999999
 30
0.0
 11
727.0045439333491
 21
293.3618769999999
 31
0.0
  0
LINE
  5
3B
330
2
100
AcDbEntity
  8
OUTLINE
100
AcDbLine
 10
675.0045439333491
 20
293.3618769999999
 30
0.0
 11
727.0045439333491
 21
293.3618769999999
 31
0.0
  0
LINE
  5
3C
330
2
100
AcDbEntity
  8
OUTLINE
100
AcDbLine
 10
675.0045439333491
 20
371.361877
 30
0.0
 11
727.0045439333491
 21
371.361877
 31
0.0
  0
LINE
  5
3D
330
2
100
AcDbEntity
  8
OUTLINE
100
AcDbLine
 10
675.0045439333491
 20
370.3618769999999
 30
0.0
 11
727.0045439333491
 21
370.3618769999999
 31
0.0
  0
CIRCLE
  5
3E
330
2
100
AcDbEntity
  8
OUTLINE
100
AcDbCircle
 10
701.0045439333493
 20
336.3618769999999
 30
0.0
 40
7.0
  0
LINE
  5
3F
330
2
100
AcDbEntity
  8
OUTLINE
100
AcDbLine
 10
660.0045439333491
 20
352.861877
 30
0.0
 11
660.0045439333491
 21
352.761877
 31
0.0
  0
LWPOLYLINE
  5
40
330
2
100
AcDbEntity
  8
OUTLINE
100
AcDbPolyline
 90
        9
 70
     0
 43
0.0
 10
701.0045439333493
 20
354.361877
 10
695.8057149333493
 20
354.622772
 10
690.6065929333492
 20
354.868443
 10
685.4068859333493
 20
355.0836659999998
 10
680.2062999333492
 20
355.2532189999999
 10
675.0045439333491
 20
355.3618769999999
 10
675.0045399333491
 20
355.3618779999999
 10
675.0045359333491
 20
355.3618779999999
 10
675.0045309333492
 20
355.3618779999999
  0
LWPOLYLINE
  5
41
330
2
100
AcDbEntity
  8
OUTLINE
100
AcDbPolyline
 90
        4
 70
     0
 43
0.0
 10
684.6892609333492
 20
350.106813
 10
681.4557009333492
 20
350.215204
 10
678.2274869333492
 20
350.301271
 10
675.0045439333491
 20
350.3613759999998
  0
LINE
  5
42
330
2
100
AcDbEntity
  8
OUTLINE
100
AcDbLine
 10
675.0045439333491
 20
355.3618769999999
 30
0.0
 11
662.5045439333491
 21
355.3618769999999
 31
0.0
  0
LINE
  5
43
330
2
100
AcDbEntity
  8
OUTLINE
100
AcDbLine
 10
675.0045439333491
 20
350.361877
 30
0.0
 11
662.4045439333492
 21
350.361877
 31
0.0
  0
ARC
  5
44
330
2
100
AcDbEntity
  8
OUTLINE
100
AcDbCircle
 10
662.5045439333491
 20
352.861877
 30
0.0
 40
2.5
100
AcDbArc
 50
90.0
 51
180.0
  0
ARC
  5
45
330
2
100
AcDbEntity
  8
OUTLINE
100
AcDbCircle
 10
662.4045439333492
 20
352.761877
 30
0.0
 40
2.399999999999999
100
AcDbArc
 50
180.0
 51
270.0
  0
ARC
  5
46
330
2
100
AcDbEntity
  8
OUTLINE
100
AcDbCircle
 10
701.0045439333493
 20
336.3618769999999
 30
0.0
 40
18.0
100
AcDbArc
 50
120.1008650969972
 51
90.0
  0
ARC
  5
47
330
2
100
AcDbEntity
  8
OUTLINE
100
AcDbCircle
 10
684.8114279333493
 20
348.100529
 30
0.0
 40
2.009999999999998
100
AcDbArc
 50
318.72635
 51
95.361091
  0
POINT
  5
48
330
2
100
AcDbEntity
  8
OUTLINE
100
AcDbPoint
 10
701.0045439333493
 20
336.3618769999999
 30
0.0
  0
LINE
  5
49
330
2
100
AcDbEntity
  8
OUTLINE
100
AcDbLine
 10
675.0045439333491
 20
293.3618769999999
 30
0.0
 11
675.0045439333491
 21
350.361877
 31
0.0
  0
LINE
  5
4A
330
2
100
AcDbEntity
  8
OUTLINE
100
AcDbLine
 10
675.0045439333491
 20
355.3618769999999
 30
0.0
 11
675.0045439333491
 21
373.839134
 31
0.0
  0
ARC
  5
4B
330
2
100
AcDbEntity
  8
OUTLINE
100
AcDbCircle
 10
440.3415629333491
 20
392.9408549999998
 30
0.0
 40
170.0
100
AcDbArc
 50
65.77938199999756
 51
87.06369099999985
  0
ARC
  5
4C
330
2
100
AcDbEntity
  8
OUTLINE
100
AcDbCircle
 10
439.5617979333492
 20
400.537725
 30
0.0
 40
160.0
100
AcDbArc
 50
66.15142299999944
 51
92.20171100000259
  0
ARC
  5
4D
330
2
100
AcDbEntity
  8
OUTLINE
100
AcDbCircle
 10
474.0263679333491
 20
511.9579269999999
 30
0.0
 40
19.0
100
AcDbArc
 50
39.00343399999777
 51
85.00000000000026
  0
ARC
  5
4E
330
2
100
AcDbEntity
  8
OUTLINE
100
AcDbCircle
 10
472.5447199333491
 20
495.0226169999998
 30
0.0
 40
30.5
100
AcDbArc
 50
59.77148799999854
 51
85.00000000000026
  0
LINE
  5
4F
330
2
100
AcDbEntity
  8
OUTLINE
100
AcDbLine
 10
467.1552419333491
 20
521.5934129999998
 30
0.0
 11
486.7651009333491
 21
519.877773
 31
0.0
  0
ARC
  5
50
330
2
100
AcDbEntity
  8
OUTLINE
100
AcDbCircle
 10
472.5447149333491
 20
495.0225789999998
 30
0.0
 40
30.0
100
AcDbArc
 50
59.32071099999604
 51
85.00000000000026
  0
ARC
  5
51
330
2
100
AcDbEntity
  8
OUTLINE
100
AcDbCircle
 10
547.4030749333491
 20
547.5015139999998
 30
0.0
 40
135.0
100
AcDbArc
 50
175.7387629999984
 51
187.1021830000006
  0
LINE
  5
52
330
2
100
AcDbEntity
  8
OUTLINE
100
AcDbLine
 10
413.4388989333491
 20
530.810211
 30
0.0
 11
475.2029709333491
 21
525.4065549999998
 31
0.0
  0
LINE
  5
53
330
2
100
AcDbEntity
  8
OUTLINE
100
AcDbLine
 10
413.5251179333492
 20
530.3007199999998
 30
0.0
 11
441.7868649333491
 21
527.828138
 31
0.0
  0
LINE
  5
54
330
2
100
AcDbEntity
  8
OUTLINE
100
AcDbLine
 10
419.9268039333492
 20
513.1776179999998
 30
0.0
 11
440.3487949333491
 21
511.3909249999998
 31
0.0
  0
LINE
  5
55
330
2
100
AcDbEntity
  8
OUTLINE
100
AcDbLine
 10
416.1847519333491
 20
522.0374739999998
 30
0.0
 11
441.0896189333491
 21
519.85858
 31
0.0
  0
ARC
  5
56
330
2
100
AcDbEntity
  8
OUTLINE
100
AcDbCircle
 10
511.890546933349
 20
547.5947129999998
 30
0.0
 40
100.0
100
AcDbArc
 50
190.0268830000001
 51
194.1440769999985
  0
ARC
  5
57
330
2
100
AcDbEntity
  8
OUTLINE
100
AcDbCircle
 10
413.5164029333491
 20
530.201101
 30
0.0
 40
0.1
100
AcDbArc
 50
85.00000000000026
 51
190.0268830000001
  0
ARC
  5
58
330
2
100
AcDbEntity
  8
OUTLINE
100
AcDbCircle
 10
515.9902619333491
 20
537.3359969999998
 30
0.0
 40
100.0
100
AcDbArc
 50
188.8505
 51
193.3077879999999
  0
ARC
  5
59
330
2
100
AcDbEntity
  8
OUTLINE
100
AcDbCircle
 10
420.1352239333491
 20
514.6630679999998
 30
0.0
 40
1.5
100
AcDbArc
 50
193.3077879999999
 51
262.0130889999991
  0
ARC
  5
5A
330
2
100
AcDbEntity
  8
OUTLINE
100
AcDbCircle
 10
416.3766419333491
 20
523.525149
 30
0.0
 40
1.5
100
AcDbArc
 50
194.1440769999985
 51
262.6502039999972
  0
LINE
  5
5B
330
2
100
AcDbEntity
  8
OUTLINE
100
AcDbLine
 10
425.2438009333491
 20
529.7773779999999
 30
0.0
 11
425.2002239333491
 21
529.2792809999999
 31
0.0
  0
LINE
  5
5C
330
2
100
AcDbEntity
  8
OUTLINE
100
AcDbLine
 10
465.9944869333491
 20
517.6796869999998
 30
0.0
 11
441.0896189333491
 21
519.85858
 31
0.0
  0
LINE
  5
5D
330
2
100
AcDbEntity
  8
OUTLINE
100
AcDbLine
 10
460.7707869333491
 20
509.604232
 30
0.0
 11
440.3487949333491
 21
511.3909249999998
 31
0.0
  0
LINE
  5
5E
330
2
100
AcDbEntity
  8
OUTLINE
100
AcDbLine
 10
475.1593879333491
 20
524.9084199999998
 30
0.0
 11
441.7868649333491
 21
527.828138
 31
0.0
  0
LINE
  5
60
330
2
100
AcDbEntity
  8
OUTLINE
100
AcDbLine
 10
458.4170849333491
 20
526.875092
 30
0.0
 11
458.3735069333491
 21
526.3769949999998
 31
0.0
  0
ARC
  5
61
330
2
100
AcDbEntity
  8
OUTLINE
100
AcDbCircle
 10
474.9234049333491
 20
518.167911
 30
0.0
 40
9.0
100
AcDbArc
 50
66.90763299999983
 51
121.4919450000006
  0
ARC
  5
62
330
2
100
AcDbEntity
  8
OUTLINE
100
AcDbCircle
 10
475.2924419333491
 20
526.4292229999998
 30
0.0
 40
4.473425999999999
100
AcDbArc
 50
85.00000000000026
 51
161.5643529999998
  0
ARC
  5
63
330
2
100
AcDbEntity
  8
OUTLINE
100
AcDbCircle
 10
370.3618069333491
 20
550.0768359999998
 30
0.0
 40
100.0
100
AcDbArc
 50
336.6922119999989
 51
341.1495000000019
  0
ARC
  5
64
330
2
100
AcDbEntity
  8
OUTLINE
100
AcDbCircle
 10
460.8234789333492
 20
511.1033069999998
 30
0.0
 40
1.5
100
AcDbArc
 50
267.9869110000002
 51
336.6922119999989
  0
ARC
  5
65
330
2
100
AcDbEntity
  8
OUTLINE
100
AcDbCircle
 10
466.0638439333491
 20
519.1780819999999
 30
0.0
 40
1.5
100
AcDbArc
 50
267.3497960000011
 51
335.855923
  0
ARC
  5
66
330
2
100
AcDbEntity
  8
OUTLINE
100
AcDbCircle
 10
376.1806459333491
 20
559.46779
 30
0.0
 40
100.0
100
AcDbArc
 50
335.855923
 51
337.6617039999997
  0
ARC
  5
67
330
2
100
AcDbEntity
  8
OUTLINE
100
AcDbCircle
 10
374.6596529333491
 20
559.6008599999999
 30
0.0
 40
100.0
100
AcDbArc
 50
337.6617039999997
 51
340.0478089999992
  0
ARC
  5
68
330
2
100
AcDbEntity
  8
OUTLINE
100
AcDbCircle
 10
376.1806509333491
 20
559.4678280000001
 30
0.0
 40
100.0
100
AcDbArc
 50
340.3441250000007
 51
341.5643529999998
  0
LINE
  5
69
330
2
100
AcDbEntity
  8
OUTLINE
100
AcDbLine
 10
413.4820079333492
 20
558.913395
 30
0.0
 11
444.2708089333491
 21
556.219724
 31
0.0
  0
ARC
  5
6A
330
2
100
AcDbEntity
  8
OUTLINE
100
AcDbCircle
 10
443.0053059333491
 20
444.8725839999998
 30
0.0
 40
118.0
100
AcDbArc
 50
87.06369099999985
 51
104.087385000002
  0
ARC
  5
6B
330
2
100
AcDbEntity
  8
OUTLINE
100
AcDbCircle
 10
414.7707359333491
 20
557.383957
 30
0.0
 40
2.0
100
AcDbArc
 50
104.087385000002
 51
175.7387629999984
  0
ARC
  5
6C
330
2
100
AcDbEntity
  8
OUTLINE
100
AcDbCircle
 10
540.3448899333491
 20
548.1190259999998
 30
0.0
 40
135.0
100
AcDbArc
 50
177.0391139999995
 51
182.578129999999
  0
LINE
  5
6D
330
2
100
AcDbEntity
  8
OUTLINE
100
AcDbLine
 10
407.6483179333491
 20
556.4123179999998
 30
0.0
 11
407.5955009333491
 21
540.3558219999998
 31
0.0
  0
LINE
  5
6E
330
2
100
AcDbEntity
  8
OUTLINE
100
AcDbLine
 10
412.616321933349
 20
539.916557
 30
0.0
 11
407.5955009333491
 21
540.3558219999998
 31
0.0
  0
LINE
  5
6F
330
2
100
AcDbEntity
  8
OUTLINE
100
AcDbLine
 10
405.4815349333491
 20
542.046499
 30
0.0
 11
407.5955009333491
 21
540.3558219999998
 31
0.0
  0
LINE
  5
70
330
2
100
AcDbEntity
  8
OUTLINE
100
AcDbLine
 10
407.6483179333491
 20
556.4123179999998
 30
0.0
 11
412.6691409333491
 21
555.973053
 31
0.0
  0
LINE
  5
71
330
2
100
AcDbEntity
  8
OUTLINE
100
AcDbLine
 10
407.6483179333491
 20
556.4123179999998
 30
0.0
 11
405.5251109333491
 21
555.0923449999998
 31
0.0
  0
ARC
  5
72
330
2
100
AcDbEntity
  8
OUTLINE
100
AcDbCircle
 10
439.1776209333491
 20
410.530342
 30
0.0
 40
150.0
100
AcDbArc
 50
92.20171100000259
 51
98.94537400000308
  0
ARC
  5
73
330
2
100
AcDbEntity
  8
OUTLINE
100
AcDbCircle
 10
452.9863829333491
 20
655.8391939999998
 30
0.0
 40
100.0
100
AcDbArc
 50
265.0000000000003
 51
276.2457660000007
  0
ARC
  5
74
330
2
100
AcDbEntity
  8
OUTLINE
100
AcDbCircle
 10
468.9790159333491
 20
509.7117299999998
 30
0.0
 40
47.0
100
AcDbArc
 50
74.88821400000212
 51
96.24576600000082
  0
ARC
  5
75
330
2
100
AcDbEntity
  8
OUTLINE
100
AcDbCircle
 10
615.0045439333491
 20
367.0761349999998
 30
0.0
 40
60.0
100
AcDbArc
 50
0.0
 51
46.98247900000227
  0
ARC
  5
76
330
2
100
AcDbEntity
  8
OUTLINE
100
AcDbCircle
 10
99.93225793334923
 20
-367.7407289999998
 30
0.0
 40
1000.0
100
AcDbArc
 50
54.74631799999739
 51
62.51138899999934
  0
ARC
  5
77
330
2
100
AcDbEntity
  8
OUTLINE
100
AcDbCircle
 10
99.93225893334921
 20
-367.7407249999998
 30
0.0
 40
1000.0
100
AcDbArc
 50
62.51138899999934
 51
66.15142299999944
  0
ARC
  5
78
330
2
100
AcDbEntity
  8
OUTLINE
100
AcDbCircle
 10
38.29535493334913
 20
-500.7922409999999
 30
0.0
 40
1150.0
100
AcDbArc
 50
62.87326999999739
 51
65.77938199999756
  0
ARC
  5
79
330
2
100
AcDbEntity
  8
OUTLINE
100
AcDbCircle
 10
238.418010933349
 20
-36.51596500000005
 30
0.0
 40
612.0
100
AcDbArc
 50
46.98247900000227
 51
59.67376400000167
  0
ARC
  5
7A
330
2
100
AcDbEntity
  8
OUTLINE
100
AcDbCircle
 10
38.29535293334913
 20
-500.7922439999998
 30
0.0
 40
1150.0
100
AcDbArc
 50
56.84304900000068
 51
62.84841399999887
  0
ARC
  5
7B
330
2
100
AcDbEntity
  8
OUTLINE
100
AcDbCircle
 10
238.4180129333492
 20
-36.51596199999993
 30
0.0
 40
612.0
100
AcDbArc
 50
59.7233319999967
 51
62.76510999999677
  0
ARC
  5
7C
330
2
100
AcDbEntity
  8
OUTLINE
100
AcDbCircle
 10
238.4180129333492
 20
-36.51596199999993
 30
0.0
 40
612.0
100
AcDbArc
 50
63.13959300000024
 51
65.77886600000268
  0
ARC
  5
7D
330
2
100
AcDbEntity
  8
OUTLINE
100
AcDbCircle
 10
486.2894369333491
 20
521.8895809999998
 30
0.0
 40
3.219613
100
AcDbArc
 50
0.3122060000005939
 51
39.00343399999777
  0
ARC
  5
7E
330
2
100
AcDbEntity
  8
OUTLINE
100
AcDbCircle
 10
488.8814089333491
 20
520.24102
 30
0.0
 40
1.5
100
AcDbArc
 50
65.77886600000268
 51
130.8673210000026
  0
ARC
  5
7F
330
2
100
AcDbEntity
  8
OUTLINE
100
AcDbCircle
 10
486.8522569333491
 20
520.8739669999999
 30
0.0
 40
1.0
100
AcDbArc
 50
265.0000000000003
 51
354.9999999999998
  0
LINE
  5
80
330
2
100
AcDbEntity
  8
OUTLINE
100
AcDbLine
 10
518.5387549333491
 20
507.725509
 30
0.0
 11
514.9762389333491
 21
509.5444349999998
 31
0.0
  0
LINE
  5
81
330
2
100
AcDbEntity
  8
OUTLINE
100
AcDbLine
 10
516.1115839333493
 20
511.7726749999998
 30
0.0
 11
519.6756099333493
 21
509.9567129999998
 31
0.0
  0
LINE
  5
82
330
2
100
AcDbEntity
  8
OUTLINE
100
AcDbLine
 10
514.9308399333491
 20
509.455334
 30
0.0
 11
516.1115839333493
 21
511.7726749999998
 31
0.0
  0
LINE
  5
83
330
2
100
AcDbEntity
  8
OUTLINE
100
AcDbLine
 10
518.4933559333491
 20
507.6364089999998
 30
0.0
 11
519.6756099333493
 21
509.9567129999998
 31
0.0
  0
LINE
  5
84
330
2
100
AcDbEntity
  8
OUTLINE
100
AcDbLine
 10
563.0935109333491
 20
522.480395
 30
0.0
 11
547.4308379333491
 21
491.7406699999999
 31
0.0
  0
ARC
  5
85
330
2
100
AcDbEntity
  8
OUTLINE
100
AcDbCircle
 10
562.4215639333491
 20
522.2629709999998
 30
0.0
 40
0.5
100
AcDbArc
 50
332.9999999999981
 51
62.87326999999739
  0
ARC
  5
86
330
2
100
AcDbEntity
  8
OUTLINE
100
AcDbCircle
 10
694.4458529333493
 20
473.3618719999998
 30
0.0
 40
30.0
100
AcDbArc
 50
234.7463179999974
 51
270.0
  0
ARC
  5
87
330
2
100
AcDbEntity
  8
OUTLINE
100
AcDbCircle
 10
670.0045439333491
 20
466.1454469999998
 30
0.0
 40
5.0
100
AcDbArc
 50
236.8430490000005
 51
0.0
  0
ARC
  5
88
330
2
100
AcDbEntity
  8
OUTLINE
100
AcDbCircle
 10
549.6246709333491
 20
139.1785089999999
 30
0.0
 40
420.0
100
AcDbArc
 50
64.93783472335924
 51
81.09458600000307
  0
ARC
  5
89
330
2
100
AcDbEntity
  8
OUTLINE
100
AcDbCircle
 10
555.7282339333491
 20
139.3994419999999
 30
0.0
 40
420.0
100
AcDbArc
 50
72.36759999999733
 51
81.33992100000027
  0
ARC
  5
8A
330
2
100
AcDbEntity
  8
OUTLINE
100
AcDbCircle
 10
562.7773459333491
 20
303.7321959999998
 30
0.0
 40
250.0
100
AcDbArc
 50
57.09033899999965
 51
76.66403999999722
  0
ARC
  5
8B
330
2
100
AcDbEntity
  8
OUTLINE
100
AcDbCircle
 10
555.7282179333491
 20
139.3994419999999
 30
0.0
 40
420.0
100
AcDbArc
 50
72.36759999999733
 51
81.33992100000027
  0
ARC
  5
8C
330
2
100
AcDbEntity
  8
OUTLINE
100
AcDbCircle
 10
549.624654933349
 20
139.1785089999999
 30
0.0
 40
420.0
100
AcDbArc
 50
64.93783116374675
 51
81.09458600000307
  0
LINE
  5
8D
330
2
100
AcDbEntity
  8
OUTLINE
100
AcDbLine
 10
595.3873884700733
 20
550.7316909545433
 30
0.0
 11
576.3112639333492
 21
550.7354749999998
 31
0.0
  0
ARC
  5
8E
330
2
100
AcDbEntity
  8
OUTLINE
100
AcDbCircle
 10
597.8884089333491
 20
417.1861159999998
 30
0.0
 40
140.0
100
AcDbArc
 50
95.77424499999928
 51
99.59488099999921
  0
ARC
  5
8F
330
2
100
AcDbEntity
  8
OUTLINE
100
AcDbCircle
 10
597.8883929333492
 20
417.1861159999998
 30
0.0
 40
140.0
100
AcDbArc
 50
95.77424499999928
 51
99.59488099999921
  0
ARC
  5
90
330
2
100
AcDbEntity
  8
OUTLINE
100
AcDbCircle
 10
585.843361933349
 20
401.035626
 30
0.0
 40
150.0
100
AcDbArc
 50
76.66403999999722
 51
86.35199229158311
  0
ARC
  5
91
330
2
100
AcDbEntity
  8
OUTLINE
100
AcDbCircle
 10
590.6476469333492
 20
400.9839979999999
 30
0.0
 40
155.0
100
AcDbArc
 50
81.09458600000307
 51
96.10537699999808
  0
ARC
  5
92
330
2
100
AcDbEntity
  8
OUTLINE
100
AcDbCircle
 10
590.6476309333491
 20
400.9839979999999
 30
0.0
 40
155.0
100
AcDbArc
 50
81.09458600000307
 51
96.10537699999808
  0
ARC
  5
93
330
2
100
AcDbEntity
  8
OUTLINE
100
AcDbCircle
 10
597.8883929333492
 20
417.1861159999998
 30
0.0
 40
140.0
100
AcDbArc
 50
95.77424499999928
 51
99.59488099999921
  0
ARC
  5
94
330
2
100
AcDbEntity
  8
OUTLINE
100
AcDbCircle
 10
590.6476469333492
 20
400.9839979999999
 30
0.0
 40
155.0
100
AcDbArc
 50
81.09458600000307
 51
96.10537699999808
  0
ARC
  5
95
330
2
100
AcDbEntity
  8
OUTLINE
100
AcDbCircle
 10
574.8031379333492
 20
553.7486299999998
 30
0.0
 40
1.5
100
AcDbArc
 50
99.59488099999921
 51
221.1980509999968
  0
ARC
  5
96
330
2
100
AcDbEntity
  8
OUTLINE
100
AcDbCircle
 10
576.3115619333491
 20
552.2354739999998
 30
0.0
 40
1.5
100
AcDbArc
 50
228.6224639999995
 51
273.6072260000002
  0
ARC
  5
97
330
2
100
AcDbEntity
  8
OUTLINE
100
AcDbCircle
 10
587.2183539333491
 20
564.616584
 30
0.0
 40
18.0
100
AcDbArc
 50
221.1980509999968
 51
228.6224639999995
  0
ARC
  5
98
330
2
100
AcDbEntity
  8
OUTLINE
100
AcDbCircle
 10
587.2183379333491
 20
564.616584
 30
0.0
 40
18.0
100
AcDbArc
 50
221.1980509999968
 51
228.6224639999995
  0
ARC
  5
99
330
2
100
AcDbEntity
  8
OUTLINE
100
AcDbCircle
 10
574.8031219333491
 20
553.7486299999998
 30
0.0
 40
1.5
100
AcDbArc
 50
99.59488099999921
 51
221.1980509999968
  0
ARC
  5
9A
330
2
100
AcDbEntity
  8
OUTLINE
100
AcDbCircle
 10
576.3115459333492
 20
552.2354739999998
 30
0.0
 40
1.5
100
AcDbArc
 50
228.6224639999995
 51
273.6072260000002
  0
ARC
  5
9B
330
2
100
AcDbEntity
  8
OUTLINE
100
AcDbCircle
 10
587.2183379333491
 20
564.616584
 30
0.0
 40
18.0
100
AcDbArc
 50
221.1980509999968
 51
228.6224639999995
  0
ARC
  5
9C
330
2
100
AcDbEntity
  8
OUTLINE
100
AcDbCircle
 10
574.8031219333491
 20
553.7486299999998
 30
0.0
 40
1.5
100
AcDbArc
 50
99.59488099999921
 51
221.1980509999968
  0
ARC
  5
9D
330
2
100
AcDbEntity
  8
OUTLINE
100
AcDbCircle
 10
576.3115459333492
 20
552.2354739999998
 30
0.0
 40
1.5
100
AcDbArc
 50
228.6224639999995
 51
273.6072260000002
  0
ARC
  5
9E
330
2
100
AcDbEntity
  8
OUTLINE
100
AcDbCircle
 10
597.8883769333492
 20
416.207173
 30
0.0
 40
140.0
100
AcDbArc
 50
81.33992100000027
 51
90.57310800000001
  0
ARC
  5
9F
330
2
100
AcDbEntity
  8
OUTLINE
100
AcDbCircle
 10
597.8883929333492
 20
416.207173
 30
0.0
 40
140.0
100
AcDbArc
 50
81.33992100000027
 51
90.57310800000001
  0
ARC
  5
A0
330
2
100
AcDbEntity
  8
OUTLINE
100
AcDbCircle
 10
597.8883929333492
 20
416.207173
 30
0.0
 40
140.0
100
AcDbArc
 50
81.33992100000027
 51
90.57310800000001
  0
ARC
  5
A1
330
2
100
AcDbEntity
  8
OUTLINE
100
AcDbCircle
 10
594.4875549333492
 20
756.190164
 30
0.0
 40
200.0
100
AcDbArc
 50
266.9376779999971
 51
270.573108
  0
ARC
  5
A2
330
2
100
AcDbEntity
  8
OUTLINE
100
AcDbCircle
 10
594.4875389333492
 20
756.190164
 30
0.0
 40
200.0
100
AcDbArc
 50
266.9376779999971
 51
270.573108
  0
ARC
  5
A3
330
2
100
AcDbEntity
  8
OUTLINE
100
AcDbCircle
 10
594.4875549333492
 20
756.190164
 30
0.0
 40
200.0
100
AcDbArc
 50
266.9376779999971
 51
270.573108
  0
ARC
  5
A4
330
2
100
AcDbEntity
  8
OUTLINE
100
AcDbCircle
 10
668.7534799333492
 20
445.0918469999998
 30
0.0
 40
95.0
100
AcDbArc
 50
52.01142199999752
 51
69.64902199999972
  0
LINE
  5
A5
330
2
100
AcDbEntity
  8
OUTLINE
100
AcDbLine
 10
727.0045439333491
 20
486.8618719999998
 30
0.0
 11
727.0045439333491
 21
366.8618719999998
 31
0.0
  0
LINE
  5
A6
330
2
100
AcDbEntity
  8
OUTLINE
100
AcDbLine
 10
701.8031379333493
 20
488.861882
 30
0.0
 11
725.8919329333492
 21
488.861882
 31
0.0
  0
LINE
  5
A7
330
2
100
AcDbEntity
  8
OUTLINE
100
AcDbLine
 10
725.5045439333493
 20
488.3618719999998
 30
0.0
 11
701.0045439333493
 21
488.3618719999998
 31
0.0
  0
LINE
  5
A8
330
2
100
AcDbEntity
  8
OUTLINE
100
AcDbLine
 10
725.5045439333493
 20
488.3618719999998
 30
0.0
 11
677.2903329333492
 21
488.3618719999998
 31
0.0
  0
ARC
  5
A9
330
2
100
AcDbEntity
  8
OUTLINE
100
AcDbCircle
 10
675.9919409333491
 20
594.0103419999998
 30
0.0
 40
104.0
100
AcDbArc
 50
270.1627659999969
 51
299.7199020000018
  0
LINE
  5
AA
330
2
100
AcDbEntity
  8
OUTLINE
100
AcDbLine
 10
675.0045439333491
 20
486.8618719999998
 30
0.0
 11
675.0045439333491
 21
466.1454469999998
 31
0.0
  0
LINE
  5
AB
330
2
100
AcDbEntity
  8
OUTLINE
100
AcDbLine
 10
701.8031379333493
 20
488.861882
 30
0.0
 11
677.7143439333492
 21
488.861882
 31
0.0
  0
LINE
  5
AC
330
2
100
AcDbEntity
  8
OUTLINE
100
AcDbLine
 10
701.0045439333493
 20
488.3618719999998
 30
0.0
 11
676.5045439333492
 21
488.3618719999998
 31
0.0
  0
ARC
  5
AD
330
2
100
AcDbEntity
  8
OUTLINE
100
AcDbCircle
 10
688.8667969333491
 20
503.423748
 30
0.0
 40
15.0
100
AcDbArc
 50
161.4812830000009
 51
197.5077499999986
  0
LINE
  5
AE
330
2
100
AcDbEntity
  8
OUTLINE
100
AcDbLine
 10
675.8031379333492
 20
490.5105129999998
 30
0.0
 11
675.8031379333492
 21
522.38153
 31
0.0
  0
LINE
  5
AF
330
2
100
AcDbEntity
  8
OUTLINE
100
AcDbLine
 10
675.8004329333491
 20
498.5616429999999
 30
0.0
 11
675.0333349333491
 21
498.5616429999999
 31
0.0
  0
ARC
  5
B0
330
2
100
AcDbEntity
  8
OUTLINE
100
AcDbCircle
 10
676.5045439333492
 20
486.8618719999998
 30
0.0
 40
1.5
100
AcDbArc
 50
90.0
 51
180.0
  0
ARC
  5
B1
330
2
100
AcDbEntity
  8
OUTLINE
100
AcDbCircle
 10
675.0333349333491
 20
499.0616429999999
 30
0.0
 40
0.5
100
AcDbArc
 50
197.5077499999986
 51
270.0
  0
LINE
  5
B2
330
2
100
AcDbEntity
  8
OUTLINE
100
AcDbLine
 10
675.8004329333491
 20
499.49072
 30
0.0
 11
675.8004329333491
 21
498.5616429999999
 31
0.0
  0
ARC
  5
B3
330
2
100
AcDbEntity
  8
OUTLINE
100
AcDbCircle
 10
706.1769839333493
 20
480.7648829999997
 30
0.0
 40
30.0
100
AcDbArc
 50
162.0240349999974
 51
163.5769570000014
  0
LINE
  5
B4
330
2
100
AcDbEntity
  8
OUTLINE
100
AcDbLine
 10
678.0659439333492
 20
488.861882
 30
0.0
 11
678.0659439333492
 21
488.3618719999998
 31
0.0
  0
ARC
  5
B5
330
2
100
AcDbEntity
  8
OUTLINE
100
AcDbCircle
 10
677.7143439333492
 20
489.1618819999997
 30
0.0
 40
0.3
100
AcDbArc
 50
163.5769570000014
 51
270.0
  0
ARC
  5
B6
330
2
100
AcDbEntity
  8
OUTLINE
100
AcDbCircle
 10
676.3031379333492
 20
490.5105129999998
 30
0.0
 40
0.5
100
AcDbArc
 50
180.0
 51
272.1502010000015
  0
LINE
  5
B7
330
2
100
AcDbEntity
  8
OUTLINE
100
AcDbLine
 10
675.8004329333491
 20
508.714712
 30
0.0
 11
674.9966459333492
 21
508.5143049999998
 31
0.0
  0
ARC
  5
B8
330
2
100
AcDbEntity
  8
OUTLINE
100
AcDbCircle
 10
675.1176069333491
 20
508.029157
 30
0.0
 40
0.5
100
AcDbArc
 50
104.0000000000028
 51
161.4812830000009
  0
ARC
  5
B9
330
2
100
AcDbEntity
  8
OUTLINE
100
AcDbCircle
 10
668.8031379333493
 20
522.38153
 30
0.0
 40
7.0
100
AcDbArc
 50
0.0
 51
64.13067399999849
  0
ARC
  5
BA
330
2
100
AcDbEntity
  8
OUTLINE
100
AcDbCircle
 10
694.8031379333492
 20
507.7375639999998
 30
0.0
 40
7.0
100
AcDbArc
 50
0.0
 51
57.09033899999965
  0
ARC
  5
BB
330
2
100
AcDbEntity
  8
OUTLINE
100
AcDbCircle
 10
725.5045439333493
 20
486.8618719999998
 30
0.0
 40
1.5
100
AcDbArc
 50
0.0
 51
90.0
  0
ARC
  5
BC
330
2
100
AcDbEntity
  8
OUTLINE
100
AcDbCircle
 10
697.4036819333491
 20
480.7648829999997
 30
0.0
 40
30.0
100
AcDbArc
 50
16.42304299999855
 51
39.53627700000279
  0
LINE
  5
BD
330
2
100
AcDbEntity
  8
OUTLINE
100
AcDbLine
 10
720.5403329333493
 20
500.0345969999998
 30
0.0
 11
720.5403329333493
 21
499.861882
 31
0.0
  0
ARC
  5
BE
330
2
100
AcDbEntity
  8
OUTLINE
100
AcDbCircle
 10
725.8919329333492
 20
489.1618819999997
 30
0.0
 40
0.3
100
AcDbArc
 50
270.0
 51
16.42304299999855
  0
LINE
  5
BF
330
2
100
AcDbEntity
  8
OUTLINE
100
AcDbLine
 10
725.5403329333493
 20
488.861882
 30
0.0
 11
725.5403329333493
 21
488.3618719999998
 31
0.0
  0
ARC
  5
C0
330
2
100
AcDbEntity
  8
OUTLINE
100
AcDbCircle
 10
726.3031379333492
 20
518.7823269999999
 30
0.0
 40
1.5
100
AcDbArc
 50
0.0
 51
52.01142199999752
  0
LINE
  5
C1
330
2
100
AcDbEntity
  8
OUTLINE
100
AcDbLine
 10
727.8031379333492
 20
504.124798
 30
0.0
 11
727.8031379333492
 21
518.7823269999999
 31
0.0
  0
ARC
  5
C2
330
2
100
AcDbEntity
  8
OUTLINE
100
AcDbCircle
 10
727.3031379333493
 20
504.124798
 30
0.0
 40
0.5
100
AcDbArc
 50
299.7199020000018
 51
0.0
  0
ARC
  5
C3
330
2
100
AcDbEntity
  8
OUTLINE
100
AcDbCircle
 10
713.2408379333493
 20
634.969599
 30
0.0
 40
100.0
100
AcDbArc
 50
252.3675999999973
 51
259.3751879999985
  0
ARC
  5
C4
330
2
100
AcDbEntity
  8
OUTLINE
100
AcDbCircle
 10
555.7282339333491
 20
140.3783849999999
 30
0.0
 40
420.0
100
AcDbArc
 50
69.64902199999972
 51
70.66258000000323
  0
POINT
  5
CF
330
2
100
AcDbEntity
  8
0
  6
CONTINUOUS
 62
     5
100
AcDbPoint
 10
701.0045439333493
 20
293.3618769999999
 30
0.0
  0
ENDSEC
  0
SECTION
  2
OBJECTS
  0
DICTIONARY
  5
A
330
0
100
AcDbDictionary
  3
ACAD_COLOR
350
33
  3
ACAD_GROUP
350
2F
  3
ACAD_LAYOUT
350
F
  3
ACAD_MATERIAL
350
32
  3
ACAD_MLINESTYLE
350
30
  3
ACAD_PLOTSETTINGS
350
31
  3
ACAD_PLOTSTYLENAME
350
9
  3
ACAD_TABLESTYLE
350
34
  3
ACDBVARIABLEDICTIONARY
350
C6
  3
ACDBHEADERROUNDTRIPXREC
350
E6
  0
DICTIONARY
  5
18
330
17
100
AcDbDictionary
280
     1
  3
ACAD_LAYERFILTERS
360
19
  3
ACLYDICTIONARY
360
1A
  0
DICTIONARY
  5
3
330
2
100
AcDbDictionary
280
     1
  3
ACAD_LAYOUTSELFREF
360
107
  3
ACAD_SORTENTS
360
C5
  0
DICTIONARY
  5
12
330
11
100
AcDbDictionary
280
     1
  3
ACAD_LAYOUTSELFREF
360
108
  0
DICTIONARY
  5
33
102
{ACAD_REACTORS
330
A
102
}
330
A
100
AcDbDictionary
  0
DICTIONARY
  5
2F
102
{ACAD_REACTORS
330
A
102
}
330
A
100
AcDbDictionary
  0
DICTIONARY
  5
F
102
{ACAD_REACTORS
330
A
102
}
330
A
100
AcDbDictionary
  0
DICTIONARY
  5
32
102
{ACAD_REACTORS
330
A
102
}
330
A
100
AcDbDictionary
  0
DICTIONARY
  5
30
102
{ACAD_REACTORS
330
A
102
}
330
A
100
AcDbDictionary
  3
STANDARD
350
36
  0
DICTIONARY
  5
31
102
{ACAD_REACTORS
330
A
102
}
330
A
100
AcDbDictionary
  0
ACDBDICTIONARYWDFLT
  5
9
102
{ACAD_REACTORS
330
A
102
}
330
A
100
AcDbDictionary
281
     1
  3
Normal
350
8
100
AcDbDictionaryWithDefault
340
8
1001
ACAD
1000
TREAT_AS_HARD
1070
     0
  0
DICTIONARY
  5
34
102
{ACAD_REACTORS
330
A
102
}
330
A
100
AcDbDictionary
  3
STANDARD
350
37
  0
DICTIONARY
  5
C6
102
{ACAD_REACTORS
330
A
102
}
330
A
100
AcDbDictionary
  3
CTABLESTYLE
350
C7
  3
DIMASSOC
350
D7
  3
HIDETEXT
350
D6
  3
PROJECTNAME
350
D8
  0
DICTIONARY
  5
E6
102
{ACAD_REACTORS
330
A
102
}
330
A
100
AcDbDictionary
  3
TSTACKALIGN
350
E7
  3
TSTACKSIZE
350
E8
  3
HYPERLINKBASE
350
E9
  3
STYLESHEET
350
EA
  3
LAYOUTDICT
350
EB
  3
PLOTSETDICT
350
EC
  3
PLOTSTYLNAMDICT
350
ED
  3
LWETCUNION
350
EE
  3
INSUNITS
350
EF
  3
CEPSNTYPE
350
F0
  3
FINGERPRINTGUID
350
F1
  3
VERSIONGUID
350
F2
  3
PSVPSCALE
350
F3
  3
DIMSTYLEDATA
350
F4
  3
PUCSORTHOREF
350
F5
  3
PUCSORTHOVIEW
350
F6
  3
PUCSBASE
350
F7
  3
PUCSORGTOP
350
F8
  3
PUCSORGBOTTOM
350
F9
  3
PUCSORGLEFT
350
FA
  3
PUCSORGRIGHT
350
FB
  3
PUCSORGFRONT
350
FC
  3
PUCSORGBACK
350
FD
  3
UCSORTHOREF
350
FE
  3
UCSORTHOVIEW
350
FF
  3
UCSBASE
350
100
  3
UCSORGTOP
350
101
  3
UCSORGBOTTOM
350
102
  3
UCSORGLEFT
350
103
  3
UCSORGRIGHT
350
104
  3
UCSORGFRONT
350
105
  3
UCSORGBACK
350
106
  0
DICTIONARY
  5
19
102
{ACAD_REACTORS
330
18
102
}
330
18
100
AcDbDictionary
  0
DICTIONARY
  5
1A
102
{ACAD_REACTORS
330
18
102
}
330
18
100
AcDbDictionary
1001
ACAD
1000
<All
  0
XRECORD
  5
107
102
{ACAD_REACTORS
330
3
102
}
330
3
100
AcDbXrecord
340
2
  0
SORTENTSTABLE
  5
C5
102
{ACAD_REACTORS
330
3
102
}
330
3
100
AcDbSortentsTable
330
2
  0
XRECORD
  5
108
102
{ACAD_REACTORS
330
12
102
}
330
12
100
AcDbXrecord
340
11
  0
MLINESTYLE
  5
36
102
{ACAD_REACTORS
330
30
102
}
330
30
100
AcDbMlineStyle
  2
STANDARD
 70
     0
  3

 62
   256
 51
90.0
 52
90.0
 71
     2
 49
0.5
 62
   256
  6
BYLAYER
 49
-0.5
 62
   256
  6
BYLAYER
  0
ACDBPLACEHOLDER
  5
8
102
{ACAD_REACTORS
330
9
102
}
330
9
100
AcDbPlaceHolder
280
     0
  0
ACAD_PROXY_OBJECT
  5
37
102
{ACAD_REACTORS
330
34
102
}
330
34
100
AcDbProxyObject
 90
      499
 91
      506
 93
     1841
310
4214DD185B99185C9928B81E85EB51B8AE3F2E07A17AD46E2B8FC02B5E8DC0F42B1CFD028000000C1008070000C3001FDFF8000000C1003FBFF000000182007F7FE00000030400FEFFC00000060801FDFF8000000C1003FBFF00000018200000000000000681FA0B0000001820100E000186003FBFF000000182007F7FE000
310
00030400FEFFC00000060801FDFF8000000C1003FBFF000000182007F7FE000000304000AD7A3703D0AC73F4160000003040201C00030C007F7FE00000030400FEFFC00000060801FDFF8000000C1003FBFF000000182007F7FE00000030400FEFFC000000608040
340
1C
340
1C
340
1C
 94
        0
1001
ACAD
1000
AcadProxyRoundTripData
1071
      503
1071
   393239
1070
     0
  0
DICTIONARYVAR
  5
C7
102
{ACAD_REACTORS
330
C6
102
}
330
C6
100
DictionaryVariables
280
     0
  1
STANDARD
  0
DICTIONARYVAR
  5
D7
102
{ACAD_REACTORS
330
C6
102
}
330
C6
100
DictionaryVariables
280
     0
  1
1
  0
DICTIONARYVAR
  5
D6
102
{ACAD_REACTORS
330
C6
102
}
330
C6
100
DictionaryVariables
280
     0
  1
1
  0
DICTIONARYVAR
  5
D8
102
{ACAD_REACTORS
330
C6
102
}
330
C6
100
DictionaryVariables
280
     0
  1

  0
XRECORD
  5
E7
102
{ACAD_REACTORS
330
E6
102
}
330
E6
100
AcDbXrecord
 90
        1
  0
XRECORD
  5
E8
102
{ACAD_REACTORS
330
E6
102
}
330
E6
100
AcDbXrecord
 90
       70
  0
XRECORD
  5
E9
102
{ACAD_REACTORS
330
E6
102
}
330
E6
100
AcDbXrecord
  1

  0
XRECORD
  5
EA
102
{ACAD_REACTORS
330
E6
102
}
330
E6
100
AcDbXrecord
  1

  0
XRECORD
  5
EB
102
{ACAD_REACTORS
330
E6
102
}
330
E6
100
AcDbXrecord
340
F
  0
XRECORD
  5
EC
102
{ACAD_REACTORS
330
E6
102
}
330
E6
100
AcDbXrecord
340
31
  0
XRECORD
  5
ED
102
{ACAD_REACTORS
330
E6
102
}
330
E6
100
AcDbXrecord
340
9
  0
XRECORD
  5
EE
102
{ACAD_REACTORS
330
E6
102
}
330
E6
100
AcDbXrecord
 90
    10781
  0
XRECORD
  5
EF
102
{ACAD_REACTORS
330
E6
102
}
330
E6
100
AcDbXrecord
 90
        0
  0
XRECORD
  5
F0
102
{ACAD_REACTORS
330
E6
102
}
330
E6
100
AcDbXrecord
 90
        0
  0
XRECORD
  5
F1
102
{ACAD_REACTORS
330
E6
102
}
330
E6
100
AcDbXrecord
  1
{E8893001-2653-4B78-92E0-BD544C58740C}
  0
XRECORD
  5
F2
102
{ACAD_REACTORS
330
E6
102
}
330
E6
100
AcDbXrecord
  1
{CA71B3B4-3210-4CF7-9B51-F9DFE1FE090D}
  0
XRECORD
  5
F3
102
{ACAD_REACTORS
330
E6
102
}
330
E6
100
AcDbXrecord
 40
0.0
  0
XRECORD
  5
F4
102
{ACAD_REACTORS
330
E6
102
}
330
E6
100
AcDbXrecord
1000
DSTYLE
1002
{
1070
    79
 70
     2
1070
   341
340
28
1070
   342
340
28
1002
}
  0
XRECORD
  5
F5
102
{ACAD_REACTORS
330
E6
102
}
330
E6
100
AcDbXrecord
340
0
  0
XRECORD
  5
F6
102
{ACAD_REACTORS
330
E6
102
}
330
E6
100
AcDbXrecord
 70
     0
  0
XRECORD
  5
F7
102
{ACAD_REACTORS
330
E6
102
}
330
E6
100
AcDbXrecord
340
0
  0
XRECORD
  5
F8
102
{ACAD_REACTORS
330
E6
102
}
330
E6
100
AcDbXrecord
 10
0.0
 20
0.0
 30
0.0
  0
XRECORD
  5
F9
102
{ACAD_REACTORS
330
E6
102
}
330
E6
100
AcDbXrecord
 10
0.0
 20
0.0
 30
0.0
  0
XRECORD
  5
FA
102
{ACAD_REACTORS
330
E6
102
}
330
E6
100
AcDbXrecord
 10
0.0
 20
0.0
 30
0.0
  0
XRECORD
  5
FB
102
{ACAD_REACTORS
330
E6
102
}
330
E6
100
AcDbXrecord
 10
0.0
 20
0.0
 30
0.0
  0
XRECORD
  5
FC
102
{ACAD_REACTORS
330
E6
102
}
330
E6
100
AcDbXrecord
 10
0.0
 20
0.0
 30
0.0
  0
XRECORD
  5
FD
102
{ACAD_REACTORS
330
E6
102
}
330
E6
100
AcDbXrecord
 10
0.0
 20
0.0
 30
0.0
  0
XRECORD
  5
FE
102
{ACAD_REACTORS
330
E6
102
}
330
E6
100
AcDbXrecord
340
0
  0
XRECORD
  5
FF
102
{ACAD_REACTORS
330
E6
102
}
330
E6
100
AcDbXrecord
 70
     0
  0
XRECORD
  5
100
102
{ACAD_REACTORS
330
E6
102
}
330
E6
100
AcDbXrecord
340
0
  0
XRECORD
  5
101
102
{ACAD_REACTORS
330
E6
102
}
330
E6
100
AcDbXrecord
 10
0.0
 20
0.0
 30
0.0
  0
XRECORD
  5
102
102
{ACAD_REACTORS
330
E6
102
}
330
E6
100
AcDbXrecord
 10
0.0
 20
0.0
 30
0.0
  0
XRECORD
  5
103
102
{ACAD_REACTORS
330
E6
102
}
330
E6
100
AcDbXrecord
 10
0.0
 20
0.0
 30
0.0
  0
XRECORD
  5
104
102
{ACAD_REACTORS
330
E6
102
}
330
E6
100
AcDbXrecord
 10
0.0
 20
0.0
 30
0.0
  0
XRECORD
  5
105
102
{ACAD_REACTORS
330
E6
102
}
330
E6
100
AcDbXrecord
 10
0.0
 20
0.0
 30
0.0
  0
XRECORD
  5
106
102
{ACAD_REACTORS
330
E6
102
}
330
E6
100
AcDbXrecord
 10
0.0
 20
0.0
 30
0.0
  0
ENDSEC
  0
EOF
