  0
SECTION
  2
HEADER
  9
$ACADVER
  1
AC1009
  9
$INSBASE
 10
576.02891116613853
 20
130.41999678382729
 30
0.0
  9
$EXTMIN
 10
552.86870072184684
 20
123.157838440451
 30
-0.0015258207003583
  9
$EXTMAX
 10
624.08986071437812
 20
400.37173577674162
 30
0.0000000349246037
  9
$LIMMIN
 10
0.0
 20
0.0
  9
$LIMMAX
 10
841.0
 20
594.0
  9
$ORTHOMODE
 70
     1
  9
$REGENMODE
 70
     1
  9
$FILLMODE
 70
     1
  9
$QTEXTMODE
 70
     0
  9
$MIRRTEXT
 70
     0
  9
$DRAGMODE
 70
     2
  9
$LTSCALE
 40
0.3
  9
$OSMODE
 70
    55
  9
$ATTMODE
 70
     1
  9
$TEXTSIZE
 40
0.2
  9
$TRACEWID
 40
0.05
  9
$TEXTSTYLE
  7
STANDARD
  9
$CLAYER
  8
0
  9
$CELTYPE
  6
BYLAYER
  9
$CECOLOR
 62
   256
  9
$DIMSCALE
 40
2.0
  9
$DIMASZ
 40
2.0
  9
$DIMEXO
 40
2.0
  9
$DIMDLI
 40
8.0
  9
$DIMRND
 40
0.0
  9
$DIMDLE
 40
0.0
  9
$DIMEXE
 40
0.5
  9
$DIMTP
 40
0.0
  9
$DIMTM
 40
0.0
  9
$DIMTXT
 40
2.0
  9
$DIMCEN
 40
0.09
  9
$DIMTSZ
 40
0.0
  9
$DIMTOL
 70
     0
  9
$DIMLIM
 70
     0
  9
$DIMTIH
 70
     0
  9
$DIMTOH
 70
     0
  9
$DIMSE1
 70
     0
  9
$DIMSE2
 70
     0
  9
$DIMTAD
 70
     1
  9
$DIMZIN
 70
     9
  9
$DIMBLK
  1
OPEN
  9
$DIMASO
 70
     1
  9
$DIMSHO
 70
     1
  9
$DIMPOST
  1

  9
$DIMAPOST
  1

  9
$DIMALT
 70
     0
  9
$DIMALTD
 70
     2
  9
$DIMALTF
 40
25.399999999999999
  9
$DIMLFAC
 40
1.0
  9
$DIMTOFL
 70
     1
  9
$DIMTVP
 40
0.0
  9
$DIMTIX
 70
     0
  9
$DIMSOXD
 70
     0
  9
$DIMSAH
 70
     0
  9
$DIMBLK1
  1

  9
$DIMBLK2
  1

  9
$DIMSTYLE
  2
STANDARD
  9
$DIMCLRD
 70
     0
  9
$DIMCLRE
 70
     0
  9
$DIMCLRT
 70
     0
  9
$DIMTFAC
 40
1.0
  9
$DIMGAP
 40
0.5
  9
$LUNITS
 70
     2
  9
$LUPREC
 70
     4
  9
$SKETCHINC
 40
0.1
  9
$FILLETRAD
 40
0.5
  9
$AUNITS
 70
     0
  9
$AUPREC
 70
     0
  9
$MENU
  1
ACAD
  9
$ELEVATION
 40
0.0
  9
$PELEVATION
 40
0.0
  9
$THICKNESS
 40
0.0
  9
$LIMCHECK
 70
     0
  9
$BLIPMODE
 70
     0
  9
$CHAMFERA
 40
0.3
  9
$CHAMFERB
 40
0.3
  9
$SKPOLY
 70
     0
  9
$TDCREATE
 40
2311949.162056007
  9
$TDUPDATE
 40
2453452.994603043
  9
$TDINDWG
 40
0.3979360185
  9
$TDUSRTIMER
 40
0.3979356597
  9
$USRTIMER
 70
     1
  9
$ANGBASE
 50
0.0
  9
$ANGDIR
 70
     0
  9
$PDMODE
 70
     3
  9
$PDSIZE
 40
0.0
  9
$PLINEWID
 40
0.0
  9
$COORDS
 70
     1
  9
$SPLFRAME
 70
     0
  9
$SPLINETYPE
 70
     6
  9
$SPLINESEGS
 70
     8
  9
$ATTDIA
 70
     0
  9
$ATTREQ
 70
     1
  9
$HANDLING
 70
 10241
  9
$HANDSEED
  5
281
  9
$SURFTAB1
 70
     6
  9
$SURFTAB2
 70
     6
  9
$SURFTYPE
 70
     6
  9
$SURFU
 70
     6
  9
$SURFV
 70
     6
  9
$UCSNAME
  2

  9
$UCSORG
 10
0.0
 20
0.0
 30
0.0
  9
$UCSXDIR
 10
1.0
 20
0.0
 30
0.0
  9
$UCSYDIR
 10
0.0
 20
1.0
 30
0.0
  9
$PUCSNAME
  2

  9
$PUCSORG
 10
0.0
 20
0.0
 30
0.0
  9
$PUCSXDIR
 10
1.0
 20
0.0
 30
0.0
  9
$PUCSYDIR
 10
0.0
 20
1.0
 30
0.0
  9
$USERI1
 70
     0
  9
$USERI2
 70
     0
  9
$USERI3
 70
     0
  9
$USERI4
 70
     0
  9
$USERI5
 70
     0
  9
$USERR1
 40
0.0
  9
$USERR2
 40
0.0
  9
$USERR3
 40
0.0
  9
$USERR4
 40
0.0
  9
$USERR5
 40
0.0
  9
$WORLDVIEW
 70
     1
  9
$SHADEDGE
 70
     3
  9
$SHADEDIF
 70
    70
  9
$TILEMODE
 70
     1
  9
$MAXACTVP
 70
    64
  9
$PLIMCHECK
 70
     0
  9
$PEXTMIN
 10
1.0000000000000000E+020
 20
1.0000000000000000E+020
 30
1.0000000000000000E+020
  9
$PEXTMAX
 10
-1.0000000000000000E+020
 20
-1.0000000000000000E+020
 30
-1.0000000000000000E+020
  9
$PLIMMIN
 10
0.0
 20
0.0
  9
$PLIMMAX
 10
12.0
 20
9.0
  9
$UNITMODE
 70
     0
  9
$VISRETAIN
 70
     1
  9
$PLINEGEN
 70
     0
  9
$PSLTSCALE
 70
     1
  0
ENDSEC
  0
SECTION
  2
TABLES
  0
TABLE
  2
VPORT
 70
     3
  0
VPORT
  2
*ACTIVE
 70
     0
 10
0.0
 20
0.0
 11
1.0
 21
1.0
 12
588.47928071811225
 22
261.76478710859629
 13
0.0
 23
0.0
 14
1.0
 24
1.0
 15
0.0
 25
0.0
 16
0.0
 26
0.0
 36
1.0
 17
0.0
 27
0.0
 37
0.0
 40
280.54046410432602
 41
1.899799599198396
 42
50.0
 43
0.0
 44
0.0
 50
0.0
 51
0.0
 71
     0
 72
   100
 73
     1
 74
     1
 75
     0
 76
     0
 77
     0
 78
     0
  0
ENDTAB
  0
TABLE
  2
LTYPE
 70
     2
  0
LTYPE
  2
CONTINUOUS
 70
     0
  3
Solid line
 72
    65
 73
     0
 40
0.0
  0
LTYPE
  2
DASHDOT
 70
     0
  3
Dash dot __ . __ . __ . __ . __ . __ . __ . __
 72
    65
 73
     4
 40
25.399999999999999
 49
12.699999999999999
 49
-6.3499999999999988
 49
0.0
 49
-6.3499999999999988
  0
ENDTAB
  0
TABLE
  2
LAYER
 70
     3
  0
LAYER
  2
0
 70
     0
 62
     7
  6
CONTINUOUS
  0
LAYER
  2
2
 70
     0
 62
     7
  6
CONTINUOUS
  0
LAYER
  2
4
 70
     0
 62
     6
  6
DASHDOT
  0
ENDTAB
  0
TABLE
  2
STYLE
 70
     1
  0
STYLE
  2
STANDARD
 70
     0
 40
0.0
 41
1.0
 50
0.0
 71
     0
 42
0.2
  3
romans.shx
  4
BIGFONT.shx
  0
ENDTAB
  0
TABLE
  2
VIEW
 70
     0
  0
ENDTAB
  0
TABLE
  2
UCS
 70
     0
  0
ENDTAB
  0
TABLE
  2
APPID
 70
     2
  0
APPID
  2
ACAD
 70
     0
  0
APPID
  2
ACAD_PSEXT
 70
     0
  0
ENDTAB
  0
TABLE
  2
DIMSTYLE
 70
     1
  0
DIMSTYLE
  2
STANDARD
 70
     0
  3

  4

  5
OPEN
  6

  7

 40
2.0
 41
2.0
 42
2.0
 43
8.0
 44
0.5
 45
0.0
 46
0.0
 47
0.0
 48
0.0
140
2.0
141
0.09
142
0.0
143
25.399999999999999
144
1.0
145
0.0
146
1.0
147
0.5
 71
     0
 72
     0
 73
     0
 74
     0
 75
     0
 76
     0
 77
     1
 78
     9
170
     0
171
     2
172
     1
173
     0
174
     0
175
     0
176
     0
177
     0
178
     0
  0
ENDTAB
  0
ENDSEC
  0
SECTION
  2
BLOCKS
  0
BLOCK
  8
0
  2
$MODEL_SPACE
 70
     0
 10
0.0
 20
0.0
 30
0.0
  3
$MODEL_SPACE
  1

  0
ENDBLK
  5
B
  8
0
  0
BLOCK
 67
     1
  8
0
  2
$PAPER_SPACE
 70
     0
 10
0.0
 20
0.0
 30
0.0
  3
$PAPER_SPACE
  1

  0
ENDBLK
  5
13
 67
     1
  8
0
  0
BLOCK
  8
0
  2
_OPEN
 70
     0
 10
0.0
 20
0.0
 30
0.0
  3
_OPEN
  1

  0
LINE
  5
27
  8
0
 62
     0
 10
-0.965926
 20
0.258819
 30
0.0
 11
0.0
 21
0.0
 31
0.0
  0
LINE
  5
28
  8
0
 62
     0
 10
0.0
 20
0.0
 30
0.0
 11
-0.965926
 21
-0.258819
 31
0.0
  0
LINE
  5
29
  8
0
 62
     0
 10
0.0
 20
0.0
 30
0.0
 11
-1.0
 21
0.0
 31
0.0
  0
ENDBLK
  5
2B
  8
0
  0
ENDSEC
  0
SECTION
  2
ENTITIES
  0
LINE
  5
31
  8
2
 10
602.52891116613853
 20
190.41999678382729
 30
0.0
 11
602.52891116613853
 21
173.2199967838273
 31
0.0
  0
LINE
  5
33
  8
2
 10
602.22891116613846
 20
172.91999678382729
 30
0.0
 11
602.52891116613853
 21
173.2199967838273
 31
0.0
  0
LINE
  5
34
  8
2
 10
599.02891116613853
 20
207.91999678382729
 30
0.0
 11
602.22891116613846
 21
207.91999678382729
 31
0.0
  0
LINE
  5
35
  8
2
 10
602.52891116613853
 20
207.61999678382719
 30
0.0
 11
602.52891116613853
 21
190.41999678382729
 31
0.0
  0
LINE
  5
36
  8
2
 10
602.22891116613846
 20
172.91999678382729
 30
0.0
 11
599.02891116613853
 21
172.91999678382729
 31
0.0
  0
LINE
  5
37
  8
2
 10
602.52891116613853
 20
207.61999678382719
 30
0.0
 11
602.22891116613846
 21
207.91999678382729
 31
0.0
  0
LINE
  5
38
  8
2
 10
599.02891116613853
 20
207.91999678382729
 30
0.0
 11
599.02891116613853
 21
190.41999678382729
 31
0.0
  0
LINE
  5
39
  8
2
 10
599.02891116613853
 20
190.41999678382729
 30
0.0
 11
599.02891116613853
 21
172.91999678382729
 31
0.0
  0
LINE
  5
3A
  8
2
 10
553.02891116613853
 20
153.26100078382731
 30
0.0
 11
553.02891116613853
 21
133.7199967838273
 31
0.0
  0
LINE
  5
3B
  8
2
 10
599.02891116613853
 20
153.26100078382731
 30
0.0
 11
599.02891116613853
 21
133.7199967838273
 31
0.0
  0
LINE
  5
3C
  8
2
 10
556.97722216613852
 20
217.71999678382721
 30
0.0
 11
576.02891116613853
 21
217.71999678382721
 31
0.0
  0
LINE
  5
3D
  8
2
 10
553.52891116613853
 20
133.21999678382721
 30
0.0
 11
557.0789111661386
 21
133.21999678382721
 31
0.0
  0
LINE
  5
3E
  8
2
 10
576.02891116613853
 20
217.71999678382721
 30
0.0
 11
595.08059916613854
 21
217.71999678382721
 31
0.0
  0
LINE
  5
3F
  8
2
 10
563.02891116613853
 20
217.71999678382721
 30
0.0
 11
563.02891116613853
 21
218.21999678382721
 31
0.0
  0
LINE
  5
40
  8
2
 10
553.02891116613853
 20
133.7199967838273
 30
0.0
 11
553.52891116613853
 21
133.21999678382721
 31
0.0
  0
LINE
  5
41
  8
2
 10
598.52891116613853
 20
133.21999678382721
 30
0.0
 11
599.02891116613853
 21
133.7199967838273
 31
0.0
  0
LINE
  5
42
  8
2
 10
555.97862916613838
 20
216.77301978382729
 30
0.0
 11
553.45091816613854
 21
169.16779678382721
 31
0.0
  0
LINE
  5
43
  8
2
 10
596.07919316613845
 20
216.77301978382729
 30
0.0
 11
596.31100016613857
 21
212.40731178382731
 31
0.0
  0
LINE
  5
44
  8
2
 10
598.52295516613844
 20
170.74881678382721
 30
0.0
 11
598.60690316613852
 21
169.16779678382721
 31
0.0
  0
LINE
  5
45
  8
2
 10
589.02891116613853
 20
217.71999678382721
 30
0.0
 11
589.02891116613853
 21
218.21999678382721
 31
0.0
  0
ARC
  5
46
  8
2
 10
556.97722216613852
 20
216.7199967838273
 30
0.0
 40
1.0
 50
90.0
 51
176.9606
  0
ARC
  5
47
  8
2
 10
299.02891116613853
 20
153.26100078382731
 30
0.0
 40
300.0
 50
0.0000000000001846
 51
3.0394000000000001
  0
ARC
  5
48
  8
2
 10
853.02891116613853
 20
153.26100078382731
 30
0.0
 40
300.0
 50
176.9606
 51
180.0
  0
ARC
  5
49
  8
2
 10
595.08059916613854
 20
216.7199967838273
 30
0.0
 40
1.0
 50
3.0394000000000001
 51
90.0
  0
ARC
  5
4A
  8
2
 10
602.40086420479804
 20
213.02910629375651
 30
0.0
 40
6.1215249145432988
 50
185.82988187816159
 51
236.57565156682881
  0
ARC
  5
4B
  8
2
 10
603.51592216613858
 20
170.71393078382729
 30
0.0
 40
5.0
 50
153.81868399999999
 51
183.0394
  0
LINE
  5
4C
  8
2
 10
553.52891116613853
 20
130.7199967838273
 30
0.0
 11
553.52891116613853
 21
130.41999678382729
 31
0.0
  0
LINE
  5
4D
  8
2
 10
553.52891116613853
 20
130.41999678382729
 30
0.0
 11
576.02891116613853
 21
130.41999678382729
 31
0.0
  0
LINE
  5
4E
  8
2
 10
598.52891116613853
 20
130.7199967838273
 30
0.0
 11
598.52891116613853
 21
130.41999678382729
 31
0.0
  0
LINE
  5
4F
  8
2
 10
598.52891116613853
 20
130.41999678382729
 30
0.0
 11
576.02891116613853
 21
130.41999678382729
 31
0.0
  0
CIRCLE
  5
50
  8
2
 10
576.02891116613853
 20
141.71999678382721
 30
0.0
 40
4.75
  0
LINE
  5
51
  8
2
 10
604.03620923014262
 20
172.91999678382729
 30
0.0
 11
616.53560311457011
 21
172.91999678382729
 31
0.0
  0
LINE
  5
52
  8
2
 10
616.50229730032277
 20
207.91999678382729
 30
0.0
 11
604.03620923014262
 21
207.91999678382729
 31
0.0
  0
LINE
  5
53
  8
2
 10
598.52891116613853
 20
133.21999678382721
 30
0.0
 11
577.45049816613857
 21
133.21999678382721
 31
0.0
  0
LINE
  5
54
  8
2
 10
553.02891116613853
 20
132.7199967838273
 30
0.0
 11
553.02891116613853
 21
130.7199967838273
 31
0.0
  0
LINE
  5
55
  8
2
 10
553.02891116613853
 20
130.7199967838273
 30
0.0
 11
576.02891116613853
 21
130.7199967838273
 31
0.0
  0
LINE
  5
56
  8
2
 10
599.02891116613853
 20
130.7199967838273
 30
0.0
 11
599.02891116613853
 21
132.7199967838273
 31
0.0
  0
LINE
  5
57
  8
2
 10
577.45049816613857
 20
133.21999678382721
 30
0.0
 11
553.52891116613853
 21
133.21999678382721
 31
0.0
  0
LINE
  5
58
  8
2
 10
576.02891116613853
 20
130.7199967838273
 30
0.0
 11
599.02891116613853
 21
130.7199967838273
 31
0.0
  0
LINE
  5
59
  8
2
 10
553.02891116613853
 20
132.7199967838273
 30
0.0
 11
553.52891116613853
 21
133.21999678382721
 31
0.0
  0
LINE
  5
5A
  8
2
 10
598.52891116613853
 20
133.21999678382721
 30
0.0
 11
599.02891116613853
 21
132.7199967838273
 31
0.0
  0
LINE
  5
5B
  8
2
 10
599.02891116613853
 20
133.7199967838273
 30
0.0
 11
576.02891116613853
 21
133.7199967838273
 31
0.0
  0
LINE
  5
5C
  8
2
 10
599.02891116613853
 20
132.7199967838273
 30
0.0
 11
576.02891116613853
 21
132.7199967838273
 31
0.0
  0
LINE
  5
5D
  8
2
 10
553.02891116613853
 20
133.7199967838273
 30
0.0
 11
576.02891116613853
 21
133.7199967838273
 31
0.0
  0
LINE
  5
5E
  8
2
 10
553.02891116613853
 20
132.7199967838273
 30
0.0
 11
576.02891116613853
 21
132.7199967838273
 31
0.0
  0
LINE
  5
5F
  8
2
 10
595.12134416613856
 20
218.21999678382721
 30
0.0
 11
595.12134416613856
 21
223.71351578382721
 31
0.0
  0
LINE
  5
60
  8
2
 10
556.93647716613839
 20
223.71351578382721
 30
0.0
 11
556.93647716613839
 21
218.21999678382721
 31
0.0
  0
LINE
  5
61
  8
2
 10
595.12134416613856
 20
223.71351578382721
 30
0.0
 11
587.77733816613852
 21
243.89100678382729
 31
0.0
  0
LINE
  5
62
  8
2
 10
556.93647716613839
 20
223.71351578382721
 30
0.0
 11
564.28048316613854
 21
243.89100678382729
 31
0.0
  0
LINE
  5
63
  8
2
 10
556.93647716613839
 20
218.21999678382721
 30
0.0
 11
595.12134416613856
 21
218.21999678382721
 31
0.0
  0
LINE
  5
64
  8
2
 10
587.30749116613845
 20
244.2199967838273
 30
0.0
 11
564.75033016613861
 21
244.2199967838273
 31
0.0
  0
LINE
  5
65
  8
2
 10
583.97891116613846
 20
244.2199967838273
 30
0.0
 11
583.97891116613846
 21
244.51999678382731
 31
0.0
  0
LINE
  5
66
  8
2
 10
568.07891116613848
 20
244.2199967838273
 30
0.0
 11
568.07891116613848
 21
244.51998178382721
 31
0.0
  0
ARC
  5
67
  8
2
 10
564.75033016613861
 20
243.7199967838273
 30
0.0
 40
0.5
 50
90.0
 51
160.0
  0
ARC
  5
68
  8
2
 10
587.30749116613845
 20
243.7199967838273
 30
0.0
 40
0.5
 50
20.0
 51
90.0
  0
LINE
  5
69
  8
2
 10
567.09294316613841
 20
257.71080578382731
 30
0.0
 11
564.64464416613839
 21
245.1154007838272
 31
0.0
  0
LINE
  5
6A
  8
2
 10
584.96487816613853
 20
257.71080578382731
 30
0.0
 11
587.41317716613855
 21
245.1154007838272
 31
0.0
  0
LINE
  5
6B
  8
2
 10
586.92236316613855
 20
244.51999678382731
 30
0.0
 11
565.13545816613851
 21
244.51999678382731
 31
0.0
  0
LINE
  5
6C
  8
2
 10
568.07457016613853
 20
258.51999678382731
 30
0.0
 11
583.98325116613853
 21
258.51999678382731
 31
0.0
  0
ARC
  5
6D
  8
2
 10
586.92236316613855
 20
245.01999678382731
 30
0.0
 40
0.5
 50
270.0
 51
11.0
  0
ARC
  5
6E
  8
2
 10
565.13545816613851
 20
245.01999678382731
 30
0.0
 40
0.5
 50
169.0
 51
270.0
  0
ARC
  5
6F
  8
2
 10
568.07457016613853
 20
257.51999678382731
 30
0.0
 40
1.0
 50
90.0
 51
169.0
  0
ARC
  5
70
  8
2
 10
583.98325116613853
 20
257.51999678382731
 30
0.0
 40
1.0
 50
11.0
 51
90.0
  0
LINE
  5
71
  8
2
 10
595.12134416613856
 20
221.2199967838273
 30
0.0
 11
556.93647716613839
 21
221.2199967838273
 31
0.0
  0
LINE
  5
72
  8
2
 10
585.21435716613848
 20
328.2058587838273
 30
0.0
 11
584.52872616613854
 21
317.7018937838273
 31
0.0
  0
LINE
  5
73
  8
2
 10
566.84346416613835
 20
328.2058587838273
 30
0.0
 11
567.52909516613852
 21
317.7018937838273
 31
0.0
  0
POLYLINE
  5
74
  8
2
 66
     1
 10
0.0
 20
0.0
 30
0.0
 70
     1
  0
VERTEX
  5
AF
  8
2
 10
567.52891116613853
 20
317.70755078382729
 30
0.0
  0
VERTEX
  5
B0
  8
2
 10
567.65804516613844
 20
317.55850378382718
 30
0.0
  0
VERTEX
  5
B1
  8
2
 10
568.04152316613852
 20
317.41398478382729
 30
0.0
  0
VERTEX
  5
B2
  8
2
 10
568.66769516613851
 20
317.27838578382728
 30
0.0
  0
VERTEX
  5
B3
  8
2
 10
569.51753316613849
 20
317.15582678382719
 30
0.0
  0
VERTEX
  5
B4
  8
2
 10
570.5652161661385
 20
317.05003178382731
 30
0.0
  0
VERTEX
  5
B5
  8
2
 10
571.77891116613853
 20
316.96421478382729
 30
0.0
  0
VERTEX
  5
B6
  8
2
 10
573.12173916613847
 20
316.90098478382731
 30
0.0
  0
VERTEX
  5
B7
  8
2
 10
574.55290116613844
 20
316.86226078382731
 30
0.0
  0
VERTEX
  5
B8
  8
2
 10
576.02891116613853
 20
316.84922078382732
 30
0.0
  0
VERTEX
  5
B9
  8
2
 10
577.5049201661385
 20
316.86226078382731
 30
0.0
  0
VERTEX
  5
BA
  8
2
 10
578.93608216613836
 20
316.90098478382731
 30
0.0
  0
VERTEX
  5
BB
  8
2
 10
580.27891116613853
 20
316.96421478382729
 30
0.0
  0
VERTEX
  5
BC
  8
2
 10
581.49260516613845
 20
317.05003178382731
 30
0.0
  0
VERTEX
  5
BD
  8
2
 10
582.54028816613845
 20
317.15582678382719
 30
0.0
  0
VERTEX
  5
BE
  8
2
 10
583.39012616613854
 20
317.27838578382728
 30
0.0
  0
VERTEX
  5
BF
  8
2
 10
584.01629816613854
 20
317.41398478382729
 30
0.0
  0
VERTEX
  5
C0
  8
2
 10
584.39977616613851
 20
317.55850378382718
 30
0.0
  0
VERTEX
  5
C1
  8
2
 10
584.52891116613853
 20
317.70755078382729
 30
0.0
  0
VERTEX
  5
C2
  8
2
 10
584.39977616613851
 20
317.85659778382728
 30
0.0
  0
VERTEX
  5
C3
  8
2
 10
584.01629816613854
 20
318.00111678382729
 30
0.0
  0
VERTEX
  5
C4
  8
2
 10
583.39012616613854
 20
318.1367157838273
 30
0.0
  0
VERTEX
  5
C5
  8
2
 10
582.54028816613845
 20
318.25927478382738
 30
0.0
  0
VERTEX
  5
C6
  8
2
 10
581.49260516613845
 20
318.36506978382732
 30
0.0
  0
VERTEX
  5
C7
  8
2
 10
580.27891116613853
 20
318.45088678382729
 30
0.0
  0
VERTEX
  5
C8
  8
2
 10
578.93608216613836
 20
318.51411678382732
 30
0.0
  0
VERTEX
  5
C9
  8
2
 10
577.5049201661385
 20
318.55284078382732
 30
0.0
  0
VERTEX
  5
CA
  8
2
 10
576.02891116613853
 20
318.56588078382731
 30
0.0
  0
VERTEX
  5
CB
  8
2
 10
574.55290116613844
 20
318.55284078382732
 30
0.0
  0
VERTEX
  5
CC
  8
2
 10
573.12173916613847
 20
318.51411678382732
 30
0.0
  0
VERTEX
  5
CD
  8
2
 10
571.77891116613853
 20
318.45088678382729
 30
0.0
  0
VERTEX
  5
CE
  8
2
 10
570.5652161661385
 20
318.36506978382732
 30
0.0
  0
VERTEX
  5
CF
  8
2
 10
569.51753316613849
 20
318.25927478382738
 30
0.0
  0
VERTEX
  5
D0
  8
2
 10
568.66769516613851
 20
318.1367157838273
 30
0.0
  0
VERTEX
  5
D1
  8
2
 10
568.04152316613852
 20
318.00111678382729
 30
0.0
  0
VERTEX
  5
D2
  8
2
 10
567.65804516613844
 20
317.85659778382728
 30
0.0
  0
SEQEND
  5
D3
  8
2
  0
POLYLINE
  5
75
  8
2
 66
     1
 10
0.0
 20
0.0
 30
0.0
 70
     1
  0
VERTEX
  5
D4
  8
2
 10
571.02891116613853
 20
317.70755178382728
 30
0.0
  0
VERTEX
  5
D5
  8
2
 10
571.10487216613831
 20
317.60937478382732
 30
0.0
  0
VERTEX
  5
D6
  8
2
 10
571.33044716613836
 20
317.51418078382733
 30
0.0
  0
VERTEX
  5
D7
  8
2
 10
571.69878416613835
 20
317.42486178382728
 30
0.0
  0
VERTEX
  5
D8
  8
2
 10
572.19868816613848
 20
317.34413278382732
 30
0.0
  0
VERTEX
  5
D9
  8
2
 10
572.81497216613843
 20
317.27444578382728
 30
0.0
  0
VERTEX
  5
DA
  8
2
 10
573.52891116613853
 20
317.21791878382732
 30
0.0
  0
VERTEX
  5
DB
  8
2
 10
574.31881016613852
 20
317.17626878382731
 30
0.0
  0
VERTEX
  5
DC
  8
2
 10
575.16067016613852
 20
317.15076178382731
 30
0.0
  0
VERTEX
  5
DD
  8
2
 10
576.02891116613853
 20
317.14217178382728
 30
0.0
  0
VERTEX
  5
DE
  8
2
 10
576.89715116613831
 20
317.15076178382731
 30
0.0
  0
VERTEX
  5
DF
  8
2
 10
577.73901116613854
 20
317.17626878382731
 30
0.0
  0
VERTEX
  5
E0
  8
2
 10
578.52891116613853
 20
317.21791878382732
 30
0.0
  0
VERTEX
  5
E1
  8
2
 10
579.24284916613851
 20
317.27444578382728
 30
0.0
  0
VERTEX
  5
E2
  8
2
 10
579.85913316613835
 20
317.34413278382732
 30
0.0
  0
VERTEX
  5
E3
  8
2
 10
580.35903816613836
 20
317.42486178382728
 30
0.0
  0
VERTEX
  5
E4
  8
2
 10
580.72737416613847
 20
317.51418078382733
 30
0.0
  0
VERTEX
  5
E5
  8
2
 10
580.95294916613852
 20
317.60937478382732
 30
0.0
  0
VERTEX
  5
E6
  8
2
 10
581.02891116613853
 20
317.70755178382728
 30
0.0
  0
VERTEX
  5
E7
  8
2
 10
580.95294916613852
 20
317.8057297838273
 30
0.0
  0
VERTEX
  5
E8
  8
2
 10
580.72737416613847
 20
317.9009237838273
 30
0.0
  0
VERTEX
  5
E9
  8
2
 10
580.35903816613836
 20
317.99024178382729
 30
0.0
  0
VERTEX
  5
EA
  8
2
 10
579.85913316613835
 20
318.0709717838273
 30
0.0
  0
VERTEX
  5
EB
  8
2
 10
579.24284916613851
 20
318.14065878382729
 30
0.0
  0
VERTEX
  5
EC
  8
2
 10
578.52891116613853
 20
318.19718578382731
 30
0.0
  0
VERTEX
  5
ED
  8
2
 10
577.73901116613854
 20
318.23883578382731
 30
0.0
  0
VERTEX
  5
EE
  8
2
 10
576.89715116613831
 20
318.26434278382732
 30
0.0
  0
VERTEX
  5
EF
  8
2
 10
576.02891116613853
 20
318.27293178382729
 30
0.0
  0
VERTEX
  5
F0
  8
2
 10
575.16067016613852
 20
318.26434278382732
 30
0.0
  0
VERTEX
  5
F1
  8
2
 10
574.31881016613852
 20
318.23883578382731
 30
0.0
  0
VERTEX
  5
F2
  8
2
 10
573.52891116613853
 20
318.19718578382731
 30
0.0
  0
VERTEX
  5
F3
  8
2
 10
572.81497216613843
 20
318.14065878382729
 30
0.0
  0
VERTEX
  5
F4
  8
2
 10
572.19868816613848
 20
318.0709717838273
 30
0.0
  0
VERTEX
  5
F5
  8
2
 10
571.69878416613835
 20
317.99024178382729
 30
0.0
  0
VERTEX
  5
F6
  8
2
 10
571.33044716613836
 20
317.9009237838273
 30
0.0
  0
VERTEX
  5
F7
  8
2
 10
571.10487216613831
 20
317.8057297838273
 30
0.0
  0
SEQEND
  5
F8
  8
2
  0
LINE
  5
76
  8
2
 10
569.67891116613839
 20
317.13696878382729
 30
0.0
 11
569.67891116613839
 21
258.51999678382731
 31
0.0
  0
LINE
  5
77
  8
2
 10
582.37891116613855
 20
258.51999678382731
 30
0.0
 11
582.37891116613855
 21
317.13696878382729
 31
0.0
  0
ARC
  5
78
  8
2
 10
576.02891116613853
 20
394.01999678382731
 30
0.0
 40
6.3499999999999988
 50
0.0000000000071907
 51
180.0
  0
POLYLINE
  5
79
  8
2
 66
     1
 10
0.0
 20
0.0
 30
0.0
  0
VERTEX
  5
F9
  8
2
 10
585.21435716613848
 20
328.2058587838273
 30
0.0
  0
VERTEX
  5
FA
  8
2
 10
585.07480916613849
 20
328.3809947838273
 30
0.0
  0
VERTEX
  5
FB
  8
2
 10
584.6604071661385
 20
328.55081078382727
 30
0.0
  0
VERTEX
  5
FC
  8
2
 10
583.98374016613855
 20
328.71014478382727
 30
0.0
  0
VERTEX
  5
FD
  8
2
 10
583.06537116613845
 20
328.85415678382731
 30
0.0
  0
VERTEX
  5
FE
  8
2
 10
581.93320216613836
 20
328.97846978382728
 30
0.0
  0
VERTEX
  5
FF
  8
2
 10
580.62163416613828
 20
329.07930878382729
 30
0.0
  0
VERTEX
  5
100
  8
2
 10
579.17051816613844
 20
329.15360678382729
 30
0.0
  0
VERTEX
  5
101
  8
2
 10
577.62394716613835
 20
329.19910878382728
 30
0.0
  0
VERTEX
  5
102
  8
2
 10
576.02891116613853
 20
329.21443178382731
 30
0.0
  0
VERTEX
  5
103
  8
2
 10
574.43387516613836
 20
329.19910878382728
 30
0.0
  0
VERTEX
  5
104
  8
2
 10
572.88730316613851
 20
329.15360678382729
 30
0.0
  0
VERTEX
  5
105
  8
2
 10
571.43618716613855
 20
329.07930878382729
 30
0.0
  0
VERTEX
  5
106
  8
2
 10
570.12462016613847
 20
328.97846978382728
 30
0.0
  0
VERTEX
  5
107
  8
2
 10
568.99245016613838
 20
328.85415678382731
 30
0.0
  0
VERTEX
  5
108
  8
2
 10
568.07408116613851
 20
328.71014478382727
 30
0.0
  0
VERTEX
  5
109
  8
2
 10
567.39741416613845
 20
328.55081078382727
 30
0.0
  0
VERTEX
  5
10A
  8
2
 10
566.98301216613845
 20
328.3809947838273
 30
0.0
  0
VERTEX
  5
10B
  8
2
 10
566.84346416613835
 20
328.2058587838273
 30
0.0
  0
SEQEND
  5
10C
  8
2
  0
POLYLINE
  5
7A
  8
2
 66
     1
 10
0.0
 20
0.0
 30
0.0
  0
VERTEX
  5
10D
  8
2
 10
584.51995116613853
 20
338.77158078382729
 30
0.0
  0
VERTEX
  5
10E
  8
2
 10
584.3909531661385
 20
338.91175478382729
 30
0.0
  0
VERTEX
  5
10F
  8
2
 10
584.00787916613854
 20
339.0476697838273
 30
0.0
  0
VERTEX
  5
110
  8
2
 10
583.38236716613835
 20
339.17519578382729
 30
0.0
  0
VERTEX
  5
111
  8
2
 10
582.53342516613839
 20
339.29045778382732
 30
0.0
  0
VERTEX
  5
112
  8
2
 10
581.48684616613855
 20
339.38995478382731
 30
0.0
  0
VERTEX
  5
113
  8
2
 10
580.27443116613836
 20
339.47066278382732
 30
0.0
  0
VERTEX
  5
114
  8
2
 10
578.93301716613848
 20
339.53012878382731
 30
0.0
  0
VERTEX
  5
115
  8
2
 10
577.50336416613845
 20
339.56654678382728
 30
0.0
  0
VERTEX
  5
116
  8
2
 10
576.02891116613853
 20
339.57881078382729
 30
0.0
  0
VERTEX
  5
117
  8
2
 10
574.55445716613838
 20
339.56654678382728
 30
0.0
  0
VERTEX
  5
118
  8
2
 10
573.12480416613857
 20
339.53012878382731
 30
0.0
  0
VERTEX
  5
119
  8
2
 10
571.78339016613859
 20
339.47066278382732
 30
0.0
  0
VERTEX
  5
11A
  8
2
 10
570.57097516613851
 20
339.38995478382731
 30
0.0
  0
VERTEX
  5
11B
  8
2
 10
569.52439616613844
 20
339.29045778382732
 30
0.0
  0
VERTEX
  5
11C
  8
2
 10
568.67545416613837
 20
339.17519578382729
 30
0.0
  0
VERTEX
  5
11D
  8
2
 10
568.04994316613852
 20
339.0476697838273
 30
0.0
  0
VERTEX
  5
11E
  8
2
 10
567.66686816613844
 20
338.91175478382729
 30
0.0
  0
VERTEX
  5
11F
  8
2
 10
567.53787016613853
 20
338.77158078382729
 30
0.0
  0
SEQEND
  5
120
  8
2
  0
POLYLINE
  5
7B
  8
2
 66
     1
 10
0.0
 20
0.0
 30
0.0
  0
VERTEX
  5
121
  8
2
 10
585.21435716613848
 20
328.83571778382719
 30
0.0
  0
VERTEX
  5
122
  8
2
 10
585.07480916613849
 20
329.01085478382731
 30
0.0
  0
VERTEX
  5
123
  8
2
 10
584.6604071661385
 20
329.18066978382728
 30
0.0
  0
VERTEX
  5
124
  8
2
 10
583.98374016613855
 20
329.34000378382729
 30
0.0
  0
VERTEX
  5
125
  8
2
 10
583.06537116613845
 20
329.48401578382732
 30
0.0
  0
VERTEX
  5
126
  8
2
 10
581.93320216613836
 20
329.60832978382729
 30
0.0
  0
VERTEX
  5
127
  8
2
 10
580.62163416613828
 20
329.7091677838273
 30
0.0
  0
VERTEX
  5
128
  8
2
 10
579.17051816613844
 20
329.7834657838273
 30
0.0
  0
VERTEX
  5
129
  8
2
 10
577.62394716613835
 20
329.8289677838273
 30
0.0
  0
VERTEX
  5
12A
  8
2
 10
576.02891116613853
 20
329.84429078382732
 30
0.0
  0
VERTEX
  5
12B
  8
2
 10
574.43387516613836
 20
329.8289677838273
 30
0.0
  0
VERTEX
  5
12C
  8
2
 10
572.88730316613851
 20
329.7834657838273
 30
0.0
  0
VERTEX
  5
12D
  8
2
 10
571.43618716613855
 20
329.7091677838273
 30
0.0
  0
VERTEX
  5
12E
  8
2
 10
570.12462016613847
 20
329.60832978382729
 30
0.0
  0
VERTEX
  5
12F
  8
2
 10
568.99245016613838
 20
329.48401578382732
 30
0.0
  0
VERTEX
  5
130
  8
2
 10
568.07408116613851
 20
329.34000378382729
 30
0.0
  0
VERTEX
  5
131
  8
2
 10
567.39741416613845
 20
329.18066978382728
 30
0.0
  0
VERTEX
  5
132
  8
2
 10
566.98301216613845
 20
329.01085478382731
 30
0.0
  0
VERTEX
  5
133
  8
2
 10
566.84346416613835
 20
328.83571778382719
 30
0.0
  0
SEQEND
  5
134
  8
2
  0
LINE
  5
7C
  8
2
 10
569.67891116613839
 20
339.30747778382732
 30
0.0
 11
569.67891116613839
 21
394.01999678382731
 31
0.0
  0
LINE
  5
7D
  8
2
 10
567.53787016613853
 20
338.77158078382729
 30
0.0
 11
566.84346416613835
 21
328.83571778382719
 31
0.0
  0
POLYLINE
  5
7E
  8
2
 66
     1
 10
0.0
 20
0.0
 30
0.0
  0
VERTEX
  5
135
  8
2
 10
566.84346416613835
 20
328.83571778382719
 30
0.0
  0
VERTEX
  5
136
  8
2
 10
566.98301216613845
 20
328.66058078382719
 30
0.0
  0
VERTEX
  5
137
  8
2
 10
567.3027441661385
 20
328.5207877838273
 30
0.0
  0
SEQEND
  5
138
  8
2
  0
LINE
  5
7F
  8
2
 10
582.37891116613855
 20
394.01999678382731
 30
0.0
 11
582.37891116613855
 21
339.30747778382732
 31
0.0
  0
LINE
  5
80
  8
2
 10
584.51995116613853
 20
338.77158078382729
 30
0.0
 11
585.21435716613848
 21
328.83571778382719
 31
0.0
  0
POLYLINE
  5
81
  8
2
 66
     1
 10
0.0
 20
0.0
 30
0.0
  0
VERTEX
  5
139
  8
2
 10
584.75507716613845
 20
328.5207877838273
 30
0.0
  0
VERTEX
  5
13A
  8
2
 10
585.12056116613837
 20
328.69195178382728
 30
0.0
  0
VERTEX
  5
13B
  8
2
 10
585.21435716613848
 20
328.83571778382719
 30
0.0
  0
SEQEND
  5
13C
  8
2
  0
ARC
  5
82
  8
2
 10
605.05935398694214
 20
202.19783234190291
 30
0.0
 40
14.27805201921983
 50
332.97486566791019
 51
15.537236036007259
  0
POLYLINE
  8
2
  5
13D
  66
     1
 10
0.000000
 20
0.000000
 30
0.000000
  70
     8
  0
VERTEX
  8
2
  5
13E
 10
615.778
 20
193.961
 30
0.000000
  70
    32
  0
VERTEX
  8
2
  5
13F
 10
615.823
 20
193.965
 30
0.000000
  70
    32
  0
VERTEX
  8
2
  5
140
 10
615.868
 20
193.970
 30
0.000000
  70
    32
  0
VERTEX
  8
2
  5
141
 10
615.913
 20
193.974
 30
0.000000
  70
    32
  0
VERTEX
  8
2
  5
142
 10
615.958
 20
193.978
 30
0.000000
  70
    32
  0
VERTEX
  8
2
  5
143
 10
616.003
 20
193.983
 30
0.000000
  70
    32
  0
VERTEX
  8
2
  5
144
 10
616.048
 20
193.987
 30
0.000000
  70
    32
  0
VERTEX
  8
2
  5
145
 10
616.093
 20
193.991
 30
0.000000
  70
    32
  0
VERTEX
  8
2
  5
146
 10
616.138
 20
193.995
 30
0.000000
  70
    32
  0
VERTEX
  8
2
  5
147
 10
616.182
 20
193.999
 30
0.000000
  70
    32
  0
VERTEX
  8
2
  5
148
 10
616.227
 20
194.003
 30
0.000000
  70
    32
  0
VERTEX
  8
2
  5
149
 10
616.272
 20
194.007
 30
0.000000
  70
    32
  0
VERTEX
  8
2
  5
14A
 10
616.316
 20
194.010
 30
0.000000
  70
    32
  0
VERTEX
  8
2
  5
14B
 10
616.361
 20
194.014
 30
0.000000
  70
    32
  0
VERTEX
  8
2
  5
14C
 10
616.405
 20
194.017
 30
0.000000
  70
    32
  0
VERTEX
  8
2
  5
14D
 10
616.450
 20
194.020
 30
0.000000
  70
    32
  0
VERTEX
  8
2
  5
14E
 10
616.494
 20
194.024
 30
0.000000
  70
    32
  0
VERTEX
  8
2
  5
14F
 10
616.538
 20
194.026
 30
0.000000
  70
    32
  0
VERTEX
  8
2
  5
150
 10
616.583
 20
194.029
 30
0.000000
  70
    32
  0
VERTEX
  8
2
  5
151
 10
616.627
 20
194.032
 30
0.000000
  70
    32
  0
VERTEX
  8
2
  5
152
 10
616.670
 20
194.034
 30
0.000000
  70
    32
  0
VERTEX
  8
2
  5
153
 10
616.714
 20
194.036
 30
0.000000
  70
    32
  0
VERTEX
  8
2
  5
154
 10
616.758
 20
194.038
 30
0.000000
  70
    32
  0
VERTEX
  8
2
  5
155
 10
616.801
 20
194.039
 30
0.000000
  70
    32
  0
VERTEX
  8
2
  5
156
 10
616.845
 20
194.040
 30
0.000000
  70
    32
  0
VERTEX
  8
2
  5
157
 10
616.888
 20
194.042
 30
0.000000
  70
    32
  0
VERTEX
  8
2
  5
158
 10
616.931
 20
194.042
 30
0.000000
  70
    32
  0
VERTEX
  8
2
  5
159
 10
616.974
 20
194.043
 30
0.000000
  70
    32
  0
VERTEX
  8
2
  5
15A
 10
617.017
 20
194.043
 30
0.000000
  70
    32
  0
VERTEX
  8
2
  5
15B
 10
617.060
 20
194.043
 30
0.000000
  70
    32
  0
VERTEX
  8
2
  5
15C
 10
617.102
 20
194.042
 30
0.000000
  70
    32
  0
VERTEX
  8
2
  5
15D
 10
617.145
 20
194.041
 30
0.000000
  70
    32
  0
VERTEX
  8
2
  5
15E
 10
617.187
 20
194.040
 30
0.000000
  70
    32
  0
VERTEX
  8
2
  5
15F
 10
617.229
 20
194.039
 30
0.000000
  70
    32
  0
VERTEX
  8
2
  5
160
 10
617.271
 20
194.037
 30
0.000000
  70
    32
  0
VERTEX
  8
2
  5
161
 10
617.312
 20
194.035
 30
0.000000
  70
    32
  0
VERTEX
  8
2
  5
162
 10
617.354
 20
194.032
 30
0.000000
  70
    32
  0
VERTEX
  8
2
  5
163
 10
617.395
 20
194.029
 30
0.000000
  70
    32
  0
VERTEX
  8
2
  5
164
 10
617.436
 20
194.025
 30
0.000000
  70
    32
  0
VERTEX
  8
2
  5
165
 10
617.477
 20
194.021
 30
0.000000
  70
    32
  0
VERTEX
  8
2
  5
166
 10
617.518
 20
194.017
 30
0.000000
  70
    32
  0
VERTEX
  8
2
  5
167
 10
617.558
 20
194.012
 30
0.000000
  70
    32
  0
VERTEX
  8
2
  5
168
 10
617.598
 20
194.007
 30
0.000000
  70
    32
  0
VERTEX
  8
2
  5
169
 10
617.638
 20
194.001
 30
0.000000
  70
    32
  0
VERTEX
  8
2
  5
16A
 10
617.678
 20
193.995
 30
0.000000
  70
    32
  0
VERTEX
  8
2
  5
16B
 10
617.717
 20
193.988
 30
0.000000
  70
    32
  0
VERTEX
  8
2
  5
16C
 10
617.756
 20
193.981
 30
0.000000
  70
    32
  0
VERTEX
  8
2
  5
16D
 10
617.795
 20
193.974
 30
0.000000
  70
    32
  0
VERTEX
  8
2
  5
16E
 10
617.834
 20
193.965
 30
0.000000
  70
    32
  0
VERTEX
  8
2
  5
16F
 10
617.872
 20
193.957
 30
0.000000
  70
    32
  0
VERTEX
  8
2
  5
170
 10
617.910
 20
193.947
 30
0.000000
  70
    32
  0
VERTEX
  8
2
  5
171
 10
617.948
 20
193.937
 30
0.000000
  70
    32
  0
VERTEX
  8
2
  5
172
 10
617.986
 20
193.927
 30
0.000000
  70
    32
  0
VERTEX
  8
2
  5
173
 10
618.023
 20
193.916
 30
0.000000
  70
    32
  0
VERTEX
  8
2
  5
174
 10
618.060
 20
193.904
 30
0.000000
  70
    32
  0
VERTEX
  8
2
  5
175
 10
618.096
 20
193.892
 30
0.000000
  70
    32
  0
VERTEX
  8
2
  5
176
 10
618.133
 20
193.879
 30
0.000000
  70
    32
  0
VERTEX
  8
2
  5
177
 10
618.169
 20
193.866
 30
0.000000
  70
    32
  0
VERTEX
  8
2
  5
178
 10
618.205
 20
193.852
 30
0.000000
  70
    32
  0
VERTEX
  8
2
  5
179
 10
618.240
 20
193.837
 30
0.000000
  70
    32
  0
VERTEX
  8
2
  5
17A
 10
618.275
 20
193.822
 30
0.000000
  70
    32
  0
VERTEX
  8
2
  5
17B
 10
618.310
 20
193.806
 30
0.000000
  70
    32
  0
VERTEX
  8
2
  5
17C
 10
618.345
 20
193.790
 30
0.000000
  70
    32
  0
VERTEX
  8
2
  5
17D
 10
618.379
 20
193.773
 30
0.000000
  70
    32
  0
VERTEX
  8
2
  5
17E
 10
618.413
 20
193.756
 30
0.000000
  70
    32
  0
VERTEX
  8
2
  5
17F
 10
618.447
 20
193.738
 30
0.000000
  70
    32
  0
VERTEX
  8
2
  5
180
 10
618.480
 20
193.719
 30
0.000000
  70
    32
  0
VERTEX
  8
2
  5
181
 10
618.513
 20
193.700
 30
0.000000
  70
    32
  0
VERTEX
  8
2
  5
182
 10
618.546
 20
193.680
 30
0.000000
  70
    32
  0
VERTEX
  8
2
  5
183
 10
618.579
 20
193.660
 30
0.000000
  70
    32
  0
VERTEX
  8
2
  5
184
 10
618.611
 20
193.640
 30
0.000000
  70
    32
  0
VERTEX
  8
2
  5
185
 10
618.644
 20
193.618
 30
0.000000
  70
    32
  0
VERTEX
  8
2
  5
186
 10
618.675
 20
193.597
 30
0.000000
  70
    32
  0
VERTEX
  8
2
  5
187
 10
618.707
 20
193.575
 30
0.000000
  70
    32
  0
VERTEX
  8
2
  5
188
 10
618.738
 20
193.552
 30
0.000000
  70
    32
  0
VERTEX
  8
2
  5
189
 10
618.770
 20
193.529
 30
0.000000
  70
    32
  0
VERTEX
  8
2
  5
18A
 10
618.800
 20
193.505
 30
0.000000
  70
    32
  0
VERTEX
  8
2
  5
18B
 10
618.831
 20
193.481
 30
0.000000
  70
    32
  0
VERTEX
  8
2
  5
18C
 10
618.862
 20
193.456
 30
0.000000
  70
    32
  0
VERTEX
  8
2
  5
18D
 10
618.892
 20
193.431
 30
0.000000
  70
    32
  0
VERTEX
  8
2
  5
18E
 10
618.922
 20
193.406
 30
0.000000
  70
    32
  0
VERTEX
  8
2
  5
18F
 10
618.951
 20
193.380
 30
0.000000
  70
    32
  0
VERTEX
  8
2
  5
190
 10
618.981
 20
193.353
 30
0.000000
  70
    32
  0
VERTEX
  8
2
  5
191
 10
619.010
 20
193.327
 30
0.000000
  70
    32
  0
VERTEX
  8
2
  5
192
 10
619.039
 20
193.299
 30
0.000000
  70
    32
  0
VERTEX
  8
2
  5
193
 10
619.068
 20
193.271
 30
0.000000
  70
    32
  0
VERTEX
  8
2
  5
194
 10
619.097
 20
193.243
 30
0.000000
  70
    32
  0
VERTEX
  8
2
  5
195
 10
619.125
 20
193.215
 30
0.000000
  70
    32
  0
VERTEX
  8
2
  5
196
 10
619.153
 20
193.186
 30
0.000000
  70
    32
  0
VERTEX
  8
2
  5
197
 10
619.181
 20
193.156
 30
0.000000
  70
    32
  0
VERTEX
  8
2
  5
198
 10
619.209
 20
193.126
 30
0.000000
  70
    32
  0
VERTEX
  8
2
  5
199
 10
619.237
 20
193.096
 30
0.000000
  70
    32
  0
VERTEX
  8
2
  5
19A
 10
619.264
 20
193.065
 30
0.000000
  70
    32
  0
VERTEX
  8
2
  5
19B
 10
619.291
 20
193.034
 30
0.000000
  70
    32
  0
VERTEX
  8
2
  5
19C
 10
619.318
 20
193.003
 30
0.000000
  70
    32
  0
VERTEX
  8
2
  5
19D
 10
619.345
 20
192.971
 30
0.000000
  70
    32
  0
VERTEX
  8
2
  5
19E
 10
619.372
 20
192.939
 30
0.000000
  70
    32
  0
VERTEX
  8
2
  5
19F
 10
619.398
 20
192.907
 30
0.000000
  70
    32
  0
VERTEX
  8
2
  5
1A0
 10
619.425
 20
192.874
 30
0.000000
  70
    32
  0
VERTEX
  8
2
  5
1A1
 10
619.451
 20
192.840
 30
0.000000
  70
    32
  0
VERTEX
  8
2
  5
1A2
 10
619.477
 20
192.807
 30
0.000000
  70
    32
  0
VERTEX
  8
2
  5
1A3
 10
619.502
 20
192.773
 30
0.000000
  70
    32
  0
VERTEX
  8
2
  5
1A4
 10
619.528
 20
192.739
 30
0.000000
  70
    32
  0
VERTEX
  8
2
  5
1A5
 10
619.553
 20
192.704
 30
0.000000
  70
    32
  0
VERTEX
  8
2
  5
1A6
 10
619.579
 20
192.669
 30
0.000000
  70
    32
  0
VERTEX
  8
2
  5
1A7
 10
619.604
 20
192.634
 30
0.000000
  70
    32
  0
VERTEX
  8
2
  5
1A8
 10
619.629
 20
192.599
 30
0.000000
  70
    32
  0
VERTEX
  8
2
  5
1A9
 10
619.653
 20
192.563
 30
0.000000
  70
    32
  0
VERTEX
  8
2
  5
1AA
 10
619.678
 20
192.527
 30
0.000000
  70
    32
  0
VERTEX
  8
2
  5
1AB
 10
619.702
 20
192.490
 30
0.000000
  70
    32
  0
VERTEX
  8
2
  5
1AC
 10
619.727
 20
192.453
 30
0.000000
  70
    32
  0
VERTEX
  8
2
  5
1AD
 10
619.751
 20
192.416
 30
0.000000
  70
    32
  0
VERTEX
  8
2
  5
1AE
 10
619.775
 20
192.379
 30
0.000000
  70
    32
  0
VERTEX
  8
2
  5
1AF
 10
619.799
 20
192.342
 30
0.000000
  70
    32
  0
VERTEX
  8
2
  5
1B0
 10
619.823
 20
192.304
 30
0.000000
  70
    32
  0
VERTEX
  8
2
  5
1B1
 10
619.846
 20
192.266
 30
0.000000
  70
    32
  0
VERTEX
  8
2
  5
1B2
 10
619.870
 20
192.227
 30
0.000000
  70
    32
  0
VERTEX
  8
2
  5
1B3
 10
619.893
 20
192.189
 30
0.000000
  70
    32
  0
VERTEX
  8
2
  5
1B4
 10
619.917
 20
192.150
 30
0.000000
  70
    32
  0
VERTEX
  8
2
  5
1B5
 10
619.940
 20
192.111
 30
0.000000
  70
    32
  0
VERTEX
  8
2
  5
1B6
 10
619.963
 20
192.071
 30
0.000000
  70
    32
  0
VERTEX
  8
2
  5
1B7
 10
619.986
 20
192.032
 30
0.000000
  70
    32
  0
VERTEX
  8
2
  5
1B8
 10
620.009
 20
191.992
 30
0.000000
  70
    32
  0
VERTEX
  8
2
  5
1B9
 10
620.031
 20
191.952
 30
0.000000
  70
    32
  0
VERTEX
  8
2
  5
1BA
 10
620.054
 20
191.912
 30
0.000000
  70
    32
  0
VERTEX
  8
2
  5
1BB
 10
620.076
 20
191.872
 30
0.000000
  70
    32
  0
VERTEX
  8
2
  5
1BC
 10
620.099
 20
191.831
 30
0.000000
  70
    32
  0
VERTEX
  8
2
  5
1BD
 10
620.121
 20
191.790
 30
0.000000
  70
    32
  0
VERTEX
  8
2
  5
1BE
 10
620.143
 20
191.749
 30
0.000000
  70
    32
  0
VERTEX
  8
2
  5
1BF
 10
620.165
 20
191.708
 30
0.000000
  70
    32
  0
VERTEX
  8
2
  5
1C0
 10
620.187
 20
191.667
 30
0.000000
  70
    32
  0
VERTEX
  8
2
  5
1C1
 10
620.209
 20
191.626
 30
0.000000
  70
    32
  0
VERTEX
  8
2
  5
1C2
 10
620.231
 20
191.584
 30
0.000000
  70
    32
  0
VERTEX
  8
2
  5
1C3
 10
620.253
 20
191.542
 30
0.000000
  70
    32
  0
VERTEX
  8
2
  5
1C4
 10
620.275
 20
191.500
 30
0.000000
  70
    32
  0
VERTEX
  8
2
  5
1C5
 10
620.296
 20
191.458
 30
0.000000
  70
    32
  0
VERTEX
  8
2
  5
1C6
 10
620.318
 20
191.416
 30
0.000000
  70
    32
  0
VERTEX
  8
2
  5
1C7
 10
620.340
 20
191.374
 30
0.000000
  70
    32
  0
VERTEX
  8
2
  5
1C8
 10
620.361
 20
191.331
 30
0.000000
  70
    32
  0
VERTEX
  8
2
  5
1C9
 10
620.382
 20
191.289
 30
0.000000
  70
    32
  0
VERTEX
  8
2
  5
1CA
 10
620.404
 20
191.246
 30
0.000000
  70
    32
  0
VERTEX
  8
2
  5
1CB
 10
620.425
 20
191.203
 30
0.000000
  70
    32
  0
VERTEX
  8
2
  5
1CC
 10
620.446
 20
191.160
 30
0.000000
  70
    32
  0
VERTEX
  8
2
  5
1CD
 10
620.467
 20
191.117
 30
0.000000
  70
    32
  0
VERTEX
  8
2
  5
1CE
 10
620.488
 20
191.074
 30
0.000000
  70
    32
  0
VERTEX
  8
2
  5
1CF
 10
620.510
 20
191.031
 30
0.000000
  70
    32
  0
VERTEX
  8
2
  5
1D0
 10
620.531
 20
190.987
 30
0.000000
  70
    32
  0
VERTEX
  8
2
  5
1D1
 10
620.552
 20
190.944
 30
0.000000
  70
    32
  0
VERTEX
  8
2
  5
1D2
 10
620.573
 20
190.901
 30
0.000000
  70
    32
  0
VERTEX
  8
2
  5
1D3
 10
620.594
 20
190.857
 30
0.000000
  70
    32
  0
VERTEX
  8
2
  5
1D4
 10
620.614
 20
190.814
 30
0.000000
  70
    32
  0
VERTEX
  8
2
  5
1D5
 10
620.635
 20
190.770
 30
0.000000
  70
    32
  0
VERTEX
  8
2
  5
1D6
 10
620.656
 20
190.726
 30
0.000000
  70
    32
  0
VERTEX
  8
2
  5
1D7
 10
620.677
 20
190.683
 30
0.000000
  70
    32
  0
VERTEX
  8
2
  5
1D8
 10
620.698
 20
190.639
 30
0.000000
  70
    32
  0
VERTEX
  8
2
  5
1D9
 10
620.719
 20
190.595
 30
0.000000
  70
    32
  0
VERTEX
  8
2
  5
1DA
 10
620.739
 20
190.551
 30
0.000000
  70
    32
  0
VERTEX
  8
2
  5
1DB
 10
620.760
 20
190.508
 30
0.000000
  70
    32
  0
VERTEX
  8
2
  5
1DC
 10
620.781
 20
190.464
 30
0.000000
  70
    32
  0
VERTEX
  8
2
  5
1DD
 10
620.802
 20
190.420
 30
0.000000
  70
    32
  0
SEQEND
  8
2
  5
1DE
  0
LINE
  5
84
  8
0
 10
602.52891116613853
 20
205.5911030049393
 30
0.0
 11
603.03620923014273
 21
205.5911030049393
 31
0.0
  0
LINE
  5
85
  8
0
 10
603.03620923014262
 20
206.91999678382729
 30
0.0
 11
603.03620923014262
 21
173.91999678382729
 31
0.0
  0
LINE
  5
86
  8
0
 10
602.52891116613853
 20
175.24642827621511
 30
0.0
 11
603.03620923014273
 21
175.24642827621511
 31
0.0
  0
ARC
  5
87
  8
0
 10
604.03620923014262
 20
173.91999678382729
 30
0.0
 40
1.0
 50
180.0
 51
270.0
  0
ARC
  5
88
  8
0
 10
604.03620923014262
 20
206.91999678382729
 30
0.0
 40
1.0
 50
90.0
 51
180.0
  0
ARC
  5
89
  8
2
 10
604.03620923014262
 20
195.7101522186635
 30
0.0
 40
1.0
 50
90.0
 51
194.52652460853619
  0
ARC
  5
8A
  8
2
 10
605.00424085542295
 20
195.9609803918363
 30
0.0
 40
2.0
 50
194.52652460853579
 51
269.99999999999972
  0
POLYLINE
  8
2
  5
1DF
  66
     1
 10
0.000000
 20
0.000000
 30
0.000000
  70
     8
  0
VERTEX
  8
2
  5
1E0
 10
605.004
 20
193.961
 30
0.000000
  70
    32
  0
VERTEX
  8
2
  5
1E1
 10
604.979
 20
193.948
 30
0.000000
  70
    32
  0
VERTEX
  8
2
  5
1E2
 10
604.953
 20
193.935
 30
0.000000
  70
    32
  0
VERTEX
  8
2
  5
1E3
 10
604.927
 20
193.922
 30
0.000000
  70
    32
  0
VERTEX
  8
2
  5
1E4
 10
604.902
 20
193.909
 30
0.000000
  70
    32
  0
VERTEX
  8
2
  5
1E5
 10
604.876
 20
193.895
 30
0.000000
  70
    32
  0
VERTEX
  8
2
  5
1E6
 10
604.851
 20
193.882
 30
0.000000
  70
    32
  0
VERTEX
  8
2
  5
1E7
 10
604.825
 20
193.869
 30
0.000000
  70
    32
  0
VERTEX
  8
2
  5
1E8
 10
604.800
 20
193.856
 30
0.000000
  70
    32
  0
VERTEX
  8
2
  5
1E9
 10
604.774
 20
193.843
 30
0.000000
  70
    32
  0
VERTEX
  8
2
  5
1EA
 10
604.749
 20
193.829
 30
0.000000
  70
    32
  0
VERTEX
  8
2
  5
1EB
 10
604.724
 20
193.816
 30
0.000000
  70
    32
  0
VERTEX
  8
2
  5
1EC
 10
604.699
 20
193.803
 30
0.000000
  70
    32
  0
VERTEX
  8
2
  5
1ED
 10
604.673
 20
193.790
 30
0.000000
  70
    32
  0
VERTEX
  8
2
  5
1EE
 10
604.648
 20
193.776
 30
0.000000
  70
    32
  0
VERTEX
  8
2
  5
1EF
 10
604.623
 20
193.763
 30
0.000000
  70
    32
  0
VERTEX
  8
2
  5
1F0
 10
604.598
 20
193.749
 30
0.000000
  70
    32
  0
VERTEX
  8
2
  5
1F1
 10
604.573
 20
193.736
 30
0.000000
  70
    32
  0
VERTEX
  8
2
  5
1F2
 10
604.549
 20
193.722
 30
0.000000
  70
    32
  0
VERTEX
  8
2
  5
1F3
 10
604.524
 20
193.708
 30
0.000000
  70
    32
  0
VERTEX
  8
2
  5
1F4
 10
604.499
 20
193.694
 30
0.000000
  70
    32
  0
VERTEX
  8
2
  5
1F5
 10
604.475
 20
193.681
 30
0.000000
  70
    32
  0
VERTEX
  8
2
  5
1F6
 10
604.450
 20
193.667
 30
0.000000
  70
    32
  0
VERTEX
  8
2
  5
1F7
 10
604.426
 20
193.653
 30
0.000000
  70
    32
  0
VERTEX
  8
2
  5
1F8
 10
604.402
 20
193.639
 30
0.000000
  70
    32
  0
VERTEX
  8
2
  5
1F9
 10
604.378
 20
193.624
 30
0.000000
  70
    32
  0
VERTEX
  8
2
  5
1FA
 10
604.354
 20
193.610
 30
0.000000
  70
    32
  0
VERTEX
  8
2
  5
1FB
 10
604.330
 20
193.596
 30
0.000000
  70
    32
  0
VERTEX
  8
2
  5
1FC
 10
604.306
 20
193.581
 30
0.000000
  70
    32
  0
VERTEX
  8
2
  5
1FD
 10
604.283
 20
193.567
 30
0.000000
  70
    32
  0
VERTEX
  8
2
  5
1FE
 10
604.260
 20
193.552
 30
0.000000
  70
    32
  0
VERTEX
  8
2
  5
1FF
 10
604.236
 20
193.537
 30
0.000000
  70
    32
  0
VERTEX
  8
2
  5
200
 10
604.213
 20
193.522
 30
0.000000
  70
    32
  0
VERTEX
  8
2
  5
201
 10
604.191
 20
193.507
 30
0.000000
  70
    32
  0
VERTEX
  8
2
  5
202
 10
604.168
 20
193.492
 30
0.000000
  70
    32
  0
VERTEX
  8
2
  5
203
 10
604.145
 20
193.477
 30
0.000000
  70
    32
  0
VERTEX
  8
2
  5
204
 10
604.123
 20
193.462
 30
0.000000
  70
    32
  0
VERTEX
  8
2
  5
205
 10
604.101
 20
193.446
 30
0.000000
  70
    32
  0
VERTEX
  8
2
  5
206
 10
604.079
 20
193.431
 30
0.000000
  70
    32
  0
VERTEX
  8
2
  5
207
 10
604.057
 20
193.415
 30
0.000000
  70
    32
  0
VERTEX
  8
2
  5
208
 10
604.036
 20
193.399
 30
0.000000
  70
    32
  0
VERTEX
  8
2
  5
209
 10
604.014
 20
193.383
 30
0.000000
  70
    32
  0
VERTEX
  8
2
  5
20A
 10
603.993
 20
193.367
 30
0.000000
  70
    32
  0
VERTEX
  8
2
  5
20B
 10
603.972
 20
193.350
 30
0.000000
  70
    32
  0
VERTEX
  8
2
  5
20C
 10
603.952
 20
193.334
 30
0.000000
  70
    32
  0
VERTEX
  8
2
  5
20D
 10
603.931
 20
193.317
 30
0.000000
  70
    32
  0
VERTEX
  8
2
  5
20E
 10
603.911
 20
193.300
 30
0.000000
  70
    32
  0
VERTEX
  8
2
  5
20F
 10
603.891
 20
193.284
 30
0.000000
  70
    32
  0
VERTEX
  8
2
  5
210
 10
603.871
 20
193.266
 30
0.000000
  70
    32
  0
VERTEX
  8
2
  5
211
 10
603.852
 20
193.249
 30
0.000000
  70
    32
  0
VERTEX
  8
2
  5
212
 10
603.832
 20
193.232
 30
0.000000
  70
    32
  0
VERTEX
  8
2
  5
213
 10
603.813
 20
193.214
 30
0.000000
  70
    32
  0
VERTEX
  8
2
  5
214
 10
603.795
 20
193.196
 30
0.000000
  70
    32
  0
VERTEX
  8
2
  5
215
 10
603.776
 20
193.178
 30
0.000000
  70
    32
  0
VERTEX
  8
2
  5
216
 10
603.758
 20
193.160
 30
0.000000
  70
    32
  0
VERTEX
  8
2
  5
217
 10
603.740
 20
193.141
 30
0.000000
  70
    32
  0
VERTEX
  8
2
  5
218
 10
603.722
 20
193.123
 30
0.000000
  70
    32
  0
VERTEX
  8
2
  5
219
 10
603.705
 20
193.104
 30
0.000000
  70
    32
  0
VERTEX
  8
2
  5
21A
 10
603.688
 20
193.085
 30
0.000000
  70
    32
  0
VERTEX
  8
2
  5
21B
 10
603.671
 20
193.065
 30
0.000000
  70
    32
  0
VERTEX
  8
2
  5
21C
 10
603.655
 20
193.046
 30
0.000000
  70
    32
  0
VERTEX
  8
2
  5
21D
 10
603.639
 20
193.026
 30
0.000000
  70
    32
  0
VERTEX
  8
2
  5
21E
 10
603.623
 20
193.006
 30
0.000000
  70
    32
  0
VERTEX
  8
2
  5
21F
 10
603.608
 20
192.986
 30
0.000000
  70
    32
  0
VERTEX
  8
2
  5
220
 10
603.592
 20
192.966
 30
0.000000
  70
    32
  0
VERTEX
  8
2
  5
221
 10
603.577
 20
192.946
 30
0.000000
  70
    32
  0
VERTEX
  8
2
  5
222
 10
603.563
 20
192.925
 30
0.000000
  70
    32
  0
VERTEX
  8
2
  5
223
 10
603.548
 20
192.904
 30
0.000000
  70
    32
  0
VERTEX
  8
2
  5
224
 10
603.534
 20
192.883
 30
0.000000
  70
    32
  0
VERTEX
  8
2
  5
225
 10
603.520
 20
192.862
 30
0.000000
  70
    32
  0
VERTEX
  8
2
  5
226
 10
603.507
 20
192.840
 30
0.000000
  70
    32
  0
VERTEX
  8
2
  5
227
 10
603.494
 20
192.819
 30
0.000000
  70
    32
  0
VERTEX
  8
2
  5
228
 10
603.481
 20
192.797
 30
0.000000
  70
    32
  0
VERTEX
  8
2
  5
229
 10
603.468
 20
192.775
 30
0.000000
  70
    32
  0
VERTEX
  8
2
  5
22A
 10
603.456
 20
192.752
 30
0.000000
  70
    32
  0
VERTEX
  8
2
  5
22B
 10
603.443
 20
192.730
 30
0.000000
  70
    32
  0
VERTEX
  8
2
  5
22C
 10
603.431
 20
192.707
 30
0.000000
  70
    32
  0
VERTEX
  8
2
  5
22D
 10
603.420
 20
192.685
 30
0.000000
  70
    32
  0
VERTEX
  8
2
  5
22E
 10
603.408
 20
192.662
 30
0.000000
  70
    32
  0
VERTEX
  8
2
  5
22F
 10
603.397
 20
192.639
 30
0.000000
  70
    32
  0
VERTEX
  8
2
  5
230
 10
603.386
 20
192.615
 30
0.000000
  70
    32
  0
VERTEX
  8
2
  5
231
 10
603.376
 20
192.592
 30
0.000000
  70
    32
  0
VERTEX
  8
2
  5
232
 10
603.365
 20
192.568
 30
0.000000
  70
    32
  0
VERTEX
  8
2
  5
233
 10
603.355
 20
192.545
 30
0.000000
  70
    32
  0
VERTEX
  8
2
  5
234
 10
603.345
 20
192.521
 30
0.000000
  70
    32
  0
VERTEX
  8
2
  5
235
 10
603.335
 20
192.497
 30
0.000000
  70
    32
  0
VERTEX
  8
2
  5
236
 10
603.326
 20
192.472
 30
0.000000
  70
    32
  0
VERTEX
  8
2
  5
237
 10
603.316
 20
192.448
 30
0.000000
  70
    32
  0
VERTEX
  8
2
  5
238
 10
603.307
 20
192.423
 30
0.000000
  70
    32
  0
VERTEX
  8
2
  5
239
 10
603.298
 20
192.399
 30
0.000000
  70
    32
  0
VERTEX
  8
2
  5
23A
 10
603.290
 20
192.374
 30
0.000000
  70
    32
  0
VERTEX
  8
2
  5
23B
 10
603.281
 20
192.349
 30
0.000000
  70
    32
  0
VERTEX
  8
2
  5
23C
 10
603.273
 20
192.324
 30
0.000000
  70
    32
  0
VERTEX
  8
2
  5
23D
 10
603.265
 20
192.298
 30
0.000000
  70
    32
  0
VERTEX
  8
2
  5
23E
 10
603.257
 20
192.273
 30
0.000000
  70
    32
  0
VERTEX
  8
2
  5
23F
 10
603.250
 20
192.247
 30
0.000000
  70
    32
  0
VERTEX
  8
2
  5
240
 10
603.242
 20
192.222
 30
0.000000
  70
    32
  0
VERTEX
  8
2
  5
241
 10
603.235
 20
192.196
 30
0.000000
  70
    32
  0
VERTEX
  8
2
  5
242
 10
603.228
 20
192.170
 30
0.000000
  70
    32
  0
VERTEX
  8
2
  5
243
 10
603.221
 20
192.144
 30
0.000000
  70
    32
  0
VERTEX
  8
2
  5
244
 10
603.214
 20
192.117
 30
0.000000
  70
    32
  0
VERTEX
  8
2
  5
245
 10
603.208
 20
192.091
 30
0.000000
  70
    32
  0
VERTEX
  8
2
  5
246
 10
603.202
 20
192.065
 30
0.000000
  70
    32
  0
VERTEX
  8
2
  5
247
 10
603.195
 20
192.038
 30
0.000000
  70
    32
  0
VERTEX
  8
2
  5
248
 10
603.189
 20
192.011
 30
0.000000
  70
    32
  0
VERTEX
  8
2
  5
249
 10
603.184
 20
191.984
 30
0.000000
  70
    32
  0
VERTEX
  8
2
  5
24A
 10
603.178
 20
191.957
 30
0.000000
  70
    32
  0
VERTEX
  8
2
  5
24B
 10
603.173
 20
191.930
 30
0.000000
  70
    32
  0
VERTEX
  8
2
  5
24C
 10
603.167
 20
191.903
 30
0.000000
  70
    32
  0
VERTEX
  8
2
  5
24D
 10
603.162
 20
191.876
 30
0.000000
  70
    32
  0
VERTEX
  8
2
  5
24E
 10
603.157
 20
191.848
 30
0.000000
  70
    32
  0
VERTEX
  8
2
  5
24F
 10
603.152
 20
191.821
 30
0.000000
  70
    32
  0
VERTEX
  8
2
  5
250
 10
603.148
 20
191.793
 30
0.000000
  70
    32
  0
VERTEX
  8
2
  5
251
 10
603.143
 20
191.766
 30
0.000000
  70
    32
  0
VERTEX
  8
2
  5
252
 10
603.139
 20
191.738
 30
0.000000
  70
    32
  0
VERTEX
  8
2
  5
253
 10
603.134
 20
191.710
 30
0.000000
  70
    32
  0
VERTEX
  8
2
  5
254
 10
603.130
 20
191.682
 30
0.000000
  70
    32
  0
VERTEX
  8
2
  5
255
 10
603.126
 20
191.654
 30
0.000000
  70
    32
  0
VERTEX
  8
2
  5
256
 10
603.122
 20
191.626
 30
0.000000
  70
    32
  0
VERTEX
  8
2
  5
257
 10
603.119
 20
191.597
 30
0.000000
  70
    32
  0
VERTEX
  8
2
  5
258
 10
603.115
 20
191.569
 30
0.000000
  70
    32
  0
VERTEX
  8
2
  5
259
 10
603.111
 20
191.541
 30
0.000000
  70
    32
  0
VERTEX
  8
2
  5
25A
 10
603.108
 20
191.512
 30
0.000000
  70
    32
  0
VERTEX
  8
2
  5
25B
 10
603.105
 20
191.484
 30
0.000000
  70
    32
  0
VERTEX
  8
2
  5
25C
 10
603.102
 20
191.455
 30
0.000000
  70
    32
  0
VERTEX
  8
2
  5
25D
 10
603.098
 20
191.426
 30
0.000000
  70
    32
  0
VERTEX
  8
2
  5
25E
 10
603.096
 20
191.397
 30
0.000000
  70
    32
  0
VERTEX
  8
2
  5
25F
 10
603.093
 20
191.369
 30
0.000000
  70
    32
  0
VERTEX
  8
2
  5
260
 10
603.090
 20
191.340
 30
0.000000
  70
    32
  0
VERTEX
  8
2
  5
261
 10
603.087
 20
191.311
 30
0.000000
  70
    32
  0
VERTEX
  8
2
  5
262
 10
603.085
 20
191.281
 30
0.000000
  70
    32
  0
VERTEX
  8
2
  5
263
 10
603.082
 20
191.252
 30
0.000000
  70
    32
  0
VERTEX
  8
2
  5
264
 10
603.080
 20
191.223
 30
0.000000
  70
    32
  0
VERTEX
  8
2
  5
265
 10
603.077
 20
191.194
 30
0.000000
  70
    32
  0
VERTEX
  8
2
  5
266
 10
603.075
 20
191.165
 30
0.000000
  70
    32
  0
VERTEX
  8
2
  5
267
 10
603.073
 20
191.135
 30
0.000000
  70
    32
  0
VERTEX
  8
2
  5
268
 10
603.071
 20
191.106
 30
0.000000
  70
    32
  0
VERTEX
  8
2
  5
269
 10
603.069
 20
191.076
 30
0.000000
  70
    32
  0
VERTEX
  8
2
  5
26A
 10
603.067
 20
191.047
 30
0.000000
  70
    32
  0
VERTEX
  8
2
  5
26B
 10
603.065
 20
191.017
 30
0.000000
  70
    32
  0
VERTEX
  8
2
  5
26C
 10
603.063
 20
190.988
 30
0.000000
  70
    32
  0
VERTEX
  8
2
  5
26D
 10
603.062
 20
190.958
 30
0.000000
  70
    32
  0
VERTEX
  8
2
  5
26E
 10
603.060
 20
190.928
 30
0.000000
  70
    32
  0
VERTEX
  8
2
  5
26F
 10
603.058
 20
190.899
 30
0.000000
  70
    32
  0
VERTEX
  8
2
  5
270
 10
603.057
 20
190.869
 30
0.000000
  70
    32
  0
VERTEX
  8
2
  5
271
 10
603.055
 20
190.839
 30
0.000000
  70
    32
  0
VERTEX
  8
2
  5
272
 10
603.053
 20
190.809
 30
0.000000
  70
    32
  0
VERTEX
  8
2
  5
273
 10
603.052
 20
190.779
 30
0.000000
  70
    32
  0
VERTEX
  8
2
  5
274
 10
603.051
 20
190.750
 30
0.000000
  70
    32
  0
VERTEX
  8
2
  5
275
 10
603.049
 20
190.720
 30
0.000000
  70
    32
  0
VERTEX
  8
2
  5
276
 10
603.048
 20
190.690
 30
0.000000
  70
    32
  0
VERTEX
  8
2
  5
277
 10
603.046
 20
190.660
 30
0.000000
  70
    32
  0
VERTEX
  8
2
  5
278
 10
603.045
 20
190.630
 30
0.000000
  70
    32
  0
VERTEX
  8
2
  5
279
 10
603.044
 20
190.600
 30
0.000000
  70
    32
  0
VERTEX
  8
2
  5
27A
 10
603.042
 20
190.570
 30
0.000000
  70
    32
  0
VERTEX
  8
2
  5
27B
 10
603.041
 20
190.540
 30
0.000000
  70
    32
  0
VERTEX
  8
2
  5
27C
 10
603.040
 20
190.510
 30
0.000000
  70
    32
  0
VERTEX
  8
2
  5
27D
 10
603.039
 20
190.480
 30
0.000000
  70
    32
  0
VERTEX
  8
2
  5
27E
 10
603.037
 20
190.450
 30
0.000000
  70
    32
  0
VERTEX
  8
2
  5
27F
 10
603.036
 20
190.420
 30
0.000000
  70
    32
  0
SEQEND
  8
2
  5
280
  0
LINE
  5
8C
  8
2
 10
605.00424085542295
 20
193.9609803918363
 30
0.0
 11
615.77834671758205
 21
193.9609803918363
 31
0.0
  0
LINE
  5
8D
  8
2
 10
604.03620923014262
 20
196.71015221866341
 30
0.0
 11
616.77834671758205
 21
196.71015221866341
 31
0.0
  0
ARC
  5
8E
  8
2
 10
615.77834671758205
 20
195.9609803918363
 30
0.0
 40
2.0
 50
270.0
 51
336.05247533653039
  0
ARC
  5
8F
  8
2
 10
616.77834671758205
 20
195.7101522186635
 30
0.0
 40
1.0
 50
325.87699689048873
 51
90.0
  0
ARC
  5
90
  8
0
 10
615.88657625412429
 20
204.81048508382179
 30
0.0
 40
3.1698857107477432
 50
22.4778715805292
 51
78.914773172918686
  0
ARC
  5
91
  8
2
 10
614.02891116613944
 20
190.41876564057711
 30
0.0
 40
10.0
 50
327.18642080472767
 51
32.813579195272318
  0
LINE
  5
92
  8
2
 10
622.43329310754586
 20
195.8378397481126
 30
0.0
 11
622.43329310754586
 21
184.9996915330417
 31
0.0
  0
ARC
  5
93
  8
0
 10
587.67248294150795
 20
189.2232483300844
 30
0.0
 40
35.384555148069623
 50
10.773934445355881
 51
28.341454152415729
  0
ARC
  5
94
  8
0
 10
615.89215742298074
 20
176.02388999416459
 30
0.0
 40
3.1698857107477432
 50
281.10744393301019
 51
337.54434552539959
  0
ARC
  5
95
  8
0
 10
587.67248294150795
 20
191.61674523757009
 30
0.0
 40
35.384555148069623
 50
331.65854584758421
 51
349.22606555464409
  0
ARC
  5
96
  8
0
 10
594.17136402006872
 20
184.5411753410298
 30
0.0
 40
26.493631395691772
 50
338.4654066667984
 51
0.500170464616541
  0
ARC
  5
97
  8
0
 10
387.20192365800068
 20
193.29373156744541
 30
0.0
 40
233.61752231002629
 50
357.90965296655889
 51
359.29458152403731
  0
ARC
  5
98
  8
4
 10
604.03620923014262
 20
234.91999678382729
 30
0.0
 40
1.0
 50
90.0
 51
194.52652460853619
  0
ARC
  5
9B
  8
4
 10
605.00424085542295
 20
235.17082495700009
 30
0.0
 40
2.0
 50
194.52652460853579
 51
269.99999999999972
  0
LINE
  5
9C
  8
4
 10
605.00424085542295
 20
233.17082495700009
 30
0.0
 11
613.79623482378747
 21
233.17082495700009
 31
0.0
  0
LINE
  5
9D
  8
4
 10
604.03620923014262
 20
235.9199967838272
 30
0.0
 11
614.79623482378747
 21
235.9199967838272
 31
0.0
  0
ARC
  5
9E
  8
4
 10
613.79623482378747
 20
235.17082495700009
 30
0.0
 40
2.0
 50
270.0
 51
336.05247533653039
  0
ARC
  5
9F
  8
4
 10
614.79623482378747
 20
234.91999678382729
 30
0.0
 40
1.0
 50
325.87699689048873
 51
90.0
  0
LINE
  5
A0
  8
4
 10
603.03620923014262
 20
206.91999678382729
 30
0.0
 11
603.03620923014262
 21
234.87622317869639
 31
0.0
  0
ARC
  5
A1
  8
4
 10
513.85784301357785
 20
203.26580450172531
 30
0.0
 40
106.7687058460583
 50
359.38865862101198
 51
17.50942326142615
  0
ARC
  5
A2
  8
4
 10
479.50085471094587
 20
191.78276981833639
 30
0.0
 40
142.989984000254
 50
1.62556920216683
 51
17.755557566902599
  0
ARC
  5
A3
  8
4
 10
604.03525070650574
 20
234.91999678382729
 30
0.0
 40
1.0
 50
90.000000000000071
 51
177.49115552511091
  0
LINE
  5
A4
  8
4
 10
604.03525070650574
 20
235.9199967838272
 30
0.0
 11
614.79623482378747
 21
235.9199967838272
 31
0.0
  0
POINT
  5
A5
  8
0
 62
     1
 10
576.02891116613853
 20
130.41999678382729
 30
0.0
  0
ENDSEC
  0
EOF
