  0
SECTION
  2
HEADER
  9
$ACADVER
  1
AC1014
  9
$ACADMAINTVER
 70
     9
  9
$DWGCODEPAGE
  3
ANSI_932
  9
$INSBASE
 10
209.503830249272
 20
290.361875
 30
0.0
  9
$EXTMIN
 10
179.6093106310807
 20
286.53569000821
 30
-0.00000001
  9
$EXTMAX
 10
274.0422036297116
 20
500.3568007849475
 30
0.00000001
  9
$LIMMIN
 10
36.0
 20
25.5
  9
$LIMMAX
 10
1224.0
 20
865.4999999999999
  9
$ORTHOMODE
 70
     1
  9
$REGENMODE
 70
     1
  9
$FILLMODE
 70
     1
  9
$QTEXTMODE
 70
     0
  9
$MIRRTEXT
 70
     0
  9
$DRAGMODE
 70
     2
  9
$LTSCALE
 40
2.0
  9
$OSMODE
 70
   513
  9
$ATTMODE
 70
     1
  9
$TEXTSIZE
 40
0.2
  9
$TRACEWID
 40
0.05
  9
$TEXTSTYLE
  7
ｽﾀｲﾙ1
  9
$CLAYER
  8
OUTLINE
  9
$CELTYPE
  6
BYLAYER
  9
$CECOLOR
 62
   256
  9
$CELTSCALE
 40
1.0
  9
$DELOBJ
 70
     1
  9
$DISPSILH
 70
     0
  9
$DIMSCALE
 40
3.0
  9
$DIMASZ
 40
2.0
  9
$DIMEXO
 40
2.0
  9
$DIMDLI
 40
7.0
  9
$DIMRND
 40
0.0
  9
$DIMDLE
 40
0.0
  9
$DIMEXE
 40
0.5
  9
$DIMTP
 40
0.0
  9
$DIMTM
 40
0.0
  9
$DIMTXT
 40
2.0
  9
$DIMCEN
 40
0.09
  9
$DIMTSZ
 40
0.0
  9
$DIMTOL
 70
     0
  9
$DIMLIM
 70
     0
  9
$DIMTIH
 70
     0
  9
$DIMTOH
 70
     0
  9
$DIMSE1
 70
     0
  9
$DIMSE2
 70
     0
  9
$DIMTAD
 70
     1
  9
$DIMZIN
 70
     8
  9
$DIMBLK
  1
OPEN
  9
$DIMASO
 70
     1
  9
$DIMSHO
 70
     1
  9
$DIMPOST
  1

  9
$DIMAPOST
  1

  9
$DIMALT
 70
     0
  9
$DIMALTD
 70
     2
  9
$DIMALTF
 40
0.03937
  9
$DIMLFAC
 40
1.0
  9
$DIMTOFL
 70
     1
  9
$DIMTVP
 40
0.0
  9
$DIMTIX
 70
     0
  9
$DIMSOXD
 70
     0
  9
$DIMSAH
 70
     0
  9
$DIMBLK1
  1

  9
$DIMBLK2
  1

  9
$DIMSTYLE
  2
G1
  9
$DIMCLRD
 70
     0
  9
$DIMCLRE
 70
     0
  9
$DIMCLRT
 70
     7
  9
$DIMTFAC
 40
1.0
  9
$DIMGAP
 40
0.8
  9
$DIMJUST
 70
     0
  9
$DIMSD1
 70
     0
  9
$DIMSD2
 70
     0
  9
$DIMTOLJ
 70
     1
  9
$DIMTZIN
 70
     0
  9
$DIMALTZ
 70
     0
  9
$DIMALTTZ
 70
     0
  9
$DIMFIT
 70
     3
  9
$DIMUPT
 70
     0
  9
$DIMUNIT
 70
     2
  9
$DIMDEC
 70
     2
  9
$DIMTDEC
 70
     2
  9
$DIMALTU
 70
     2
  9
$DIMALTTD
 70
     2
  9
$DIMTXSTY
  7
STANDARD
  9
$DIMAUNIT
 70
     0
  9
$LUNITS
 70
     2
  9
$LUPREC
 70
     4
  9
$SKETCHINC
 40
0.1
  9
$FILLETRAD
 40
5.0
  9
$AUNITS
 70
     0
  9
$AUPREC
 70
     0
  9
$MENU
  1
.
  9
$ELEVATION
 40
0.0
  9
$PELEVATION
 40
0.0
  9
$THICKNESS
 40
0.0
  9
$LIMCHECK
 70
     0
  9
$BLIPMODE
 70
     0
  9
$CHAMFERA
 40
0.0
  9
$CHAMFERB
 40
0.0
  9
$CHAMFERC
 40
0.0
  9
$CHAMFERD
 40
0.0
  9
$SKPOLY
 70
     0
  9
$TDCREATE
 40
2452110.000000000
  9
$TDUPDATE
 40
2453944.014071539
  9
$TDINDWG
 40
0.5260816551
  9
$TDUSRTIMER
 40
0.5260816551
  9
$USRTIMER
 70
     1
  9
$ANGBASE
 50
0.0
  9
$ANGDIR
 70
     0
  9
$PDMODE
 70
     3
  9
$PDSIZE
 40
0.0
  9
$PLINEWID
 40
0.0
  9
$COORDS
 70
     1
  9
$SPLFRAME
 70
     0
  9
$SPLINETYPE
 70
     6
  9
$SPLINESEGS
 70
     8
  9
$ATTDIA
 70
     0
  9
$ATTREQ
 70
     1
  9
$HANDLING
 70
 10241
  9
$HANDSEED
  5
DD
  9
$SURFTAB1
 70
     6
  9
$SURFTAB2
 70
     6
  9
$SURFTYPE
 70
     6
  9
$SURFU
 70
     6
  9
$SURFV
 70
     6
  9
$UCSNAME
  2

  9
$UCSORG
 10
0.0
 20
0.0
 30
0.0
  9
$UCSXDIR
 10
1.0
 20
0.0
 30
0.0
  9
$UCSYDIR
 10
0.0
 20
1.0
 30
0.0
  9
$PUCSNAME
  2

  9
$PUCSORG
 10
0.0
 20
0.0
 30
0.0
  9
$PUCSXDIR
 10
1.0
 20
0.0
 30
0.0
  9
$PUCSYDIR
 10
0.0
 20
1.0
 30
0.0
  9
$USERI1
 70
     0
  9
$USERI2
 70
     0
  9
$USERI3
 70
     0
  9
$USERI4
 70
     0
  9
$USERI5
 70
     0
  9
$USERR1
 40
0.0
  9
$USERR2
 40
0.0
  9
$USERR3
 40
0.0
  9
$USERR4
 40
0.0
  9
$USERR5
 40
0.0
  9
$WORLDVIEW
 70
     1
  9
$SHADEDGE
 70
     3
  9
$SHADEDIF
 70
    70
  9
$TILEMODE
 70
     1
  9
$MAXACTVP
 70
    48
  9
$PINSBASE
 10
0.0
 20
0.0
 30
0.0
  9
$PLIMCHECK
 70
     0
  9
$PEXTMIN
 10
1.000000000000000E+20
 20
1.000000000000000E+20
 30
1.000000000000000E+20
  9
$PEXTMAX
 10
-1.000000000000000E+20
 20
-1.000000000000000E+20
 30
-1.000000000000000E+20
  9
$PLIMMIN
 10
0.0
 20
0.0
  9
$PLIMMAX
 10
12.0
 20
9.0
  9
$UNITMODE
 70
     0
  9
$VISRETAIN
 70
     1
  9
$PLINEGEN
 70
     0
  9
$PSLTSCALE
 70
     1
  9
$TREEDEPTH
 70
  3020
  9
$PICKSTYLE
 70
     1
  9
$CMLSTYLE
  2
STANDARD
  9
$CMLJUST
 70
     0
  9
$CMLSCALE
 40
1.0
  9
$PROXYGRAPHICS
 70
     1
  9
$MEASUREMENT
 70
     0
  0
ENDSEC
  0
SECTION
  2
CLASSES
  0
CLASS
  1
ACDBDICTIONARYWDFLT
  2
AcDbDictionaryWithDefault
  3
AutoCAD 2000
 90
        0
280
     0
281
     0
  0
CLASS
  1
ACDBPLACEHOLDER
  2
AcDbPlaceHolder
  3
AutoCAD 2000
 90
        0
280
     0
281
     0
  0
CLASS
  1
LAYOUT
  2
AcDbLayout
  3
AutoCAD 2000
 90
        0
280
     0
281
     0
  0
CLASS
  1
TABLESTYLE
  2
AcDbTableStyle
  3
ObjectDBX Classes
 90
     2047
280
     0
281
     0
  0
CLASS
  1
SORTENTSTABLE
  2
AcDbSortentsTable
  3
AutoCAD 2000
 90
        0
280
     0
281
     0
  0
CLASS
  1
DICTIONARYVAR
  2
AcDbDictionaryVar
  3
AutoCAD 2000
 90
        0
280
     0
281
     0
  0
CLASS
  1
ACAD_PROXY_OBJECT_WRAPPER
  2
AcDbProxyObjectWrapper
  3
AutoCAD 2000
 90
        0
280
     0
281
     0
  0
CLASS
  1
LONG_TRANSACTION
  2
AcDbLongTransaction
  3
AutoCAD 2000
 90
        0
280
     0
281
     0
  0
CLASS
  1
LWPOLYLINE
  2
AcDbPolyline
  3
AutoCAD 2000
 90
        0
280
     0
281
     1
  0
CLASS
  1
HATCH
  2
AcDbHatch
  3
AutoCAD 2000
 90
        0
280
     0
281
     1
  0
CLASS
  1
XRECORD
  2
AcDbXrecord
  3
AutoCAD 2000
 90
        0
280
     0
281
     0
  0
CLASS
  1
WIPEOUT
  2
AcDbWipeout
  3
"WipeOut|Product Desc: Object Enabler for WipeOut entity^I^I^I^I^I^I|Company: Autodesk, Inc.^I^I^I^I^I^I|WEB Address: www.autodesk.com"
 90
      127
280
     0
281
     1
  0
CLASS
  1
WIPEOUTVARIABLES
  2
AcDbWipeoutVariables
  3
"WipeOut|Product Desc:     WipeOut Dbx Application|Company:          Autodesk, Inc.|WEB Address:      www.autodesk.com"
 90
        0
280
     0
281
     0
  0
CLASS
  1
LONG_TRANSACTION
  2
AcDbLongTransaction
  3
AutoCAD 2000
 90
        0
280
     0
281
     0
  0
CLASS
  1
LWPOLYLINE
  2
AcDbPolyline
  3
AutoCAD 2000
 90
        0
280
     0
281
     1
  0
CLASS
  1
HATCH
  2
AcDbHatch
  3
AutoCAD 2000
 90
        0
280
     0
281
     1
  0
CLASS
  1
XRECORD
  2
AcDbXrecord
  3
AutoCAD 2000
 90
        0
280
     0
281
     0
  0
ENDSEC
  0
SECTION
  2
TABLES
  0
TABLE
  2
VPORT
  5
23
330
0
100
AcDbSymbolTable
 70
     2
  0
VPORT
  5
B9
330
23
100
AcDbSymbolTableRecord
100
AcDbViewportTableRecord
  2
*ACTIVE
 70
     0
 10
0.0
 20
0.0
 11
1.0
 21
1.0
 12
226.8003868181263
 22
393.4293842193781
 13
0.0
 23
0.0
 14
1.0
 24
1.0
 15
0.0
 25
0.0
 16
0.0
 26
0.0
 36
1.0
 17
0.0
 27
0.0
 37
0.0
 40
216.4603303380635
 41
1.933867735470941
 42
50.0
 43
0.0
 44
0.0
 50
0.0
 51
0.0
 71
     0
 72
   100
 73
     1
 74
     1
 75
     0
 76
     0
 77
     0
 78
     0
  0
ENDTAB
  0
TABLE
  2
LTYPE
  5
1E
330
0
100
AcDbSymbolTable
 70
     1
  0
LTYPE
  5
1F
330
1E
100
AcDbSymbolTableRecord
100
AcDbLinetypeTableRecord
  2
BYBLOCK
 70
     0
  3

 72
    65
 73
     0
 40
0.0
  0
LTYPE
  5
20
330
1E
100
AcDbSymbolTableRecord
100
AcDbLinetypeTableRecord
  2
BYLAYER
 70
     0
  3

 72
    65
 73
     0
 40
0.0
  0
LTYPE
  5
C
330
1E
100
AcDbSymbolTableRecord
100
AcDbLinetypeTableRecord
  2
CONTINUOUS
 70
     0
  3
Solid line
 72
    65
 73
     0
 40
0.0
  0
ENDTAB
  0
TABLE
  2
LAYER
  5
17
102
{ACAD_XDICTIONARY
360
18
102
}
330
0
100
AcDbSymbolTable
 70
     2
  0
LAYER
  5
7
330
17
100
AcDbSymbolTableRecord
100
AcDbLayerTableRecord
  2
0
 70
     0
 62
     7
  6
CONTINUOUS
  0
LAYER
  5
35
330
17
100
AcDbSymbolTableRecord
100
AcDbLayerTableRecord
  2
OUTLINE
 70
     0
 62
     7
  6
CONTINUOUS
1001
ACAECLAYERSTANDARD
1000

1000

  0
ENDTAB
  0
TABLE
  2
STYLE
  5
1B
330
0
100
AcDbSymbolTable
 70
     2
  0
STYLE
  5
1C
330
1B
100
AcDbSymbolTableRecord
100
AcDbTextStyleTableRecord
  2
STANDARD
 70
     0
 40
0.0
 41
1.0
 50
0.0
 71
     0
 42
0.2
  3
romans.shx
  4
bigfont.shx
  0
STYLE
  5
37
330
1B
100
AcDbSymbolTableRecord
100
AcDbTextStyleTableRecord
  2
ｽﾀｲﾙ1
 70
     0
 40
0.0
 41
1.0
 50
0.0
 71
     0
 42
0.2
  3
MS PGothic.ttf
  4

1001
ACAD
1000
MS PGothic
1071
    32818
  0
ENDTAB
  0
TABLE
  2
VIEW
  5
21
330
0
100
AcDbSymbolTable
 70
     0
  0
ENDTAB
  0
TABLE
  2
UCS
  5
22
330
0
100
AcDbSymbolTable
 70
     0
  0
ENDTAB
  0
TABLE
  2
APPID
  5
25
330
0
100
AcDbSymbolTable
 70
     3
  0
APPID
  5
B
330
25
100
AcDbSymbolTableRecord
100
AcDbRegAppTableRecord
  2
ACAD
 70
     0
  0
APPID
  5
36
330
25
100
AcDbSymbolTableRecord
100
AcDbRegAppTableRecord
  2
ACAECLAYERSTANDARD
 70
     0
  0
APPID
  5
10
330
25
100
AcDbSymbolTableRecord
100
AcDbRegAppTableRecord
  2
ACAD_PSEXT
 70
     0
  0
ENDTAB
  0
TABLE
  2
DIMSTYLE
  5
26
330
0
100
AcDbSymbolTable
 70
     1
  0
DIMSTYLE
105
27
330
26
100
AcDbSymbolTableRecord
100
AcDbDimStyleTableRecord
  2
G1
 70
     0
  3

  4

  5
OPEN
  6

  7

 40
3.0
 41
2.0
 42
2.0
 43
7.0
 44
0.5
 45
0.0
 46
0.0
 47
0.0
 48
0.0
140
2.0
141
0.09
142
0.0
143
0.03937
144
1.0
145
0.0
146
1.0
147
0.8
 71
     0
 72
     0
 73
     0
 74
     0
 75
     0
 76
     0
 77
     1
 78
     8
170
     0
171
     2
172
     1
173
     0
174
     0
175
     0
176
     0
177
     0
178
     7
270
     2
271
     2
272
     2
273
     2
274
     2
340
1C
275
     0
280
     0
281
     0
282
     0
283
     1
284
     0
285
     0
286
     0
287
     3
288
     0
  0
ENDTAB
  0
TABLE
  2
BLOCK_RECORD
  5
1
330
0
100
AcDbSymbolTable
 70
     1
  0
BLOCK_RECORD
  5
2
102
{ACAD_XDICTIONARY
360
3
102
}
330
1
100
AcDbSymbolTableRecord
100
AcDbBlockTableRecord
  2
*MODEL_SPACE
  0
BLOCK_RECORD
  5
11
102
{ACAD_XDICTIONARY
360
12
102
}
330
1
100
AcDbSymbolTableRecord
100
AcDbBlockTableRecord
  2
*PAPER_SPACE
  0
BLOCK_RECORD
  5
28
330
1
100
AcDbSymbolTableRecord
100
AcDbBlockTableRecord
  2
_OPEN
  0
ENDTAB
  0
ENDSEC
  0
SECTION
  2
BLOCKS
  0
BLOCK
  5
6
330
2
100
AcDbEntity
  8
0
100
AcDbBlockBegin
  2
*MODEL_SPACE
 70
     0
 10
0.0
 20
0.0
 30
0.0
  3
*MODEL_SPACE
  1

  0
ENDBLK
  5
D
330
2
100
AcDbEntity
  8
0
100
AcDbBlockEnd
  0
BLOCK
  5
14
330
11
100
AcDbEntity
 67
     1
  8
0
100
AcDbBlockBegin
  2
*PAPER_SPACE
 70
     0
 10
0.0
 20
0.0
 30
0.0
  3
*PAPER_SPACE
  1

  0
ENDBLK
  5
15
330
11
100
AcDbEntity
 67
     1
  8
0
100
AcDbBlockEnd
  0
BLOCK
  5
29
330
28
100
AcDbEntity
  8
0
100
AcDbBlockBegin
  2
_OPEN
 70
     0
 10
0.0
 20
0.0
 30
0.0
  3
_OPEN
  1

  0
LINE
  5
2A
330
28
100
AcDbEntity
  8
0
 62
     0
100
AcDbLine
 10
-0.9659259999999999
 20
0.258819
 30
0.0
 11
0.0
 21
0.0
 31
0.0
  0
LINE
  5
2B
330
28
100
AcDbEntity
  8
0
 62
     0
100
AcDbLine
 10
0.0
 20
0.0
 30
0.0
 11
-0.9659259999999999
 21
-0.258819
 31
0.0
  0
LINE
  5
2C
330
28
100
AcDbEntity
  8
0
 62
     0
100
AcDbLine
 10
0.0
 20
0.0
 30
0.0
 11
-1.0
 21
0.0
 31
0.0
  0
ENDBLK
  5
2D
330
28
100
AcDbEntity
  8
0
100
AcDbBlockEnd
  0
ENDSEC
  0
SECTION
  2
ENTITIES
  0
LINE
  5
3A
330
2
100
AcDbEntity
  8
OUTLINE
  6
CONTINUOUS
100
AcDbLine
 10
238.5565641281159
 20
336.6463934605868
 30
0.0
 11
180.4510963704283
 21
336.6463934605868
 31
0.0
  0
LINE
  5
3B
330
2
100
AcDbEntity
  8
OUTLINE
  6
CONTINUOUS
100
AcDbLine
 10
238.5565641281159
 20
335.9446126374961
 30
0.0
 11
180.4510963704283
 21
335.9446126374961
 31
0.0
  0
LINE
  5
3C
330
2
100
AcDbEntity
  8
OUTLINE
  6
CONTINUOUS
100
AcDbLine
 10
180.4510963704283
 20
335.9446126374961
 30
0.0
 11
180.4510963704283
 21
290.361875
 31
0.0
  0
LINE
  5
3D
330
2
100
AcDbEntity
  8
OUTLINE
  6
CONTINUOUS
100
AcDbLine
 10
183.7570971221588
 20
335.9446126374961
 30
0.0
 11
183.7570971221588
 21
336.6463934605868
 31
0.0
  0
LINE
  5
3E
330
2
100
AcDbEntity
  8
OUTLINE
  6
CONTINUOUS
100
AcDbLine
 10
238.5565641281159
 20
336.6463934605868
 30
0.0
 11
238.5565641281159
 21
396.5545888326973
 31
0.0
  0
LINE
  5
3F
330
2
100
AcDbEntity
  8
OUTLINE
  6
CONTINUOUS
100
AcDbLine
 10
238.5565641281159
 20
290.361875
 30
0.0
 11
238.5565641281159
 21
335.9446126374961
 31
0.0
  0
LINE
  5
40
330
2
100
AcDbEntity
  8
OUTLINE
  6
CONTINUOUS
100
AcDbLine
 10
235.2505633763855
 20
335.9446126374961
 30
0.0
 11
235.2505633763855
 21
336.6463934605868
 31
0.0
  0
SPLINE
  5
41
330
2
100
AcDbEntity
  8
OUTLINE
  6
CONTINUOUS
100
AcDbSpline
210
0.0
220
0.0
230
1.0
 70
    12
 71
     3
 72
    75
 73
    71
 74
     0
 42
0.0000000001
 43
0.0000000001
 40
0.0
 40
0.0
 40
0.0
 40
0.0
 40
0.0080561503733789
 40
0.0149059105131517
 40
0.0234704189168227
 40
0.0310227078521005
 40
0.0359770458792238
 40
0.0432186863467282
 40
0.052215000484614
 40
0.0572703339428387
 40
0.0652759425081209
 40
0.0713480855028007
 40
0.0765726053928983
 40
0.0804802470578203
 40
0.0891856111707404
 40
0.097478361033819
 40
0.097478361033819
 40
0.1065479625296539
 40
0.1138878439836049
 40
0.1292233944118627
 40
0.1449131004514001
 40
0.1566548759591173
 40
0.1665688102988588
 40
0.1748020901199375
 40
0.1851087658483624
 40
0.2031146171518811
 40
0.2100762024098291
 40
0.2216242920418284
 40
0.2351983024203399
 40
0.2469935962071591
 40
0.2571123743456266
 40
0.2687398627769984
 40
0.2826212035311597
 40
0.3001452083791638
 40
0.3136954269798316
 40
0.3264353782647034
 40
0.3414707838202838
 40
0.3497073012650148
 40
0.359325031175425
 40
0.3678352509702965
 40
0.3832579494458162
 40
0.3984263868151343
 40
0.4040940667220931
 40
0.4188954139932001
 40
0.4287778187304335
 40
0.447269097701304
 40
0.4580555823704461
 40
0.473901390960805
 40
0.4899254006121789
 40
0.5020717308148424
 40
0.5214263766084363
 40
0.5295338717659087
 40
0.54112660314921
 40
0.5583414784209067
 40
0.5739411891775329
 40
0.5899149233323277
 40
0.6042604726431444
 40
0.6237116343598529
 40
0.6472780661532647
 40
0.6722017252187064
 40
0.6931153584092943
 40
0.7132966081120108
 40
0.7338404812904408
 40
0.7635407295055457
 40
0.7903440233843653
 40
0.8143784112258501
 40
0.8524549889277125
 40
0.8876285049394947
 40
0.9282347571358547
 40
1.0
 40
1.0
 40
1.0
 40
1.0
 10
265.2937036904749
 20
307.9762944409958
 30
0.0
 41
1.0
 10
265.3041840577109
 20
308.0355654204486
 30
0.0
 41
1.0
 10
265.3258817238382
 20
308.1532938030637
 30
0.0
 41
1.0
 10
265.3666662899849
 20
308.3612251980217
 30
0.0
 41
1.0
 10
265.4129734795071
 20
308.5864272910553
 30
0.0
 41
1.0
 10
265.460890080549
 20
308.8121494224782
 30
0.0
 41
1.0
 10
265.5090844854328
 20
309.0362966338953
 30
0.0
 41
1.0
 10
265.5637236802638
 20
309.2891708401576
 30
0.0
 41
1.0
 10
265.6212940143635
 20
309.5578868318261
 30
0.0
 41
1.0
 10
265.6819426587779
 20
309.8472977983656
 30
0.0
 41
1.0
 10
265.7348839420844
 20
310.1066748851081
 30
0.0
 41
1.0
 10
265.7878675280806
 20
310.3760095080775
 30
0.0
 41
1.0
 10
265.8291534629951
 20
310.5929288182188
 30
0.0
 41
1.0
 10
265.8767778037307
 20
310.8502194996118
 30
0.0
 41
1.0
 10
265.9328957362635
 20
311.1654107547291
 30
0.0
 41
1.0
 10
265.973090266684
 20
311.4039997316627
 30
0.0
 41
1.0
 10
266.0216730155896
 20
311.6935030419276
 30
0.0
 41
1.0
 10
266.0597342716954
 20
311.9304119975858
 30
0.0
 41
1.0
 10
266.1409546167976
 20
312.4226939705195
 30
0.0
 41
1.0
 10
266.1877294593681
 20
312.7927178440705
 30
0.0
 41
1.0
 10
266.2362281855541
 20
313.3282038559136
 30
0.0
 41
0.9999999999999998
 10
266.2611295250974
 20
313.79679193209
 30
0.0
 41
1.0
 10
266.2733281303575
 20
314.1882530955363
 30
0.0
 41
1.0
 10
266.2779340307823
 20
314.559946131898
 30
0.0
 41
0.9999999999999998
 10
266.2742993686181
 20
315.0190509437925
 30
0.0
 41
1.0
 10
266.255489821029
 20
315.3977603875606
 30
0.0
 41
1.0
 10
266.2186597249959
 20
315.8011294502326
 30
0.0
 41
1.0
 10
266.1754601340589
 20
316.1530004351798
 30
0.0
 41
1.0
 10
266.1086516397389
 20
316.5562208235146
 30
0.0
 41
1.0
 10
266.0278553159785
 20
316.9404065044918
 30
0.0
 41
1.0
 10
265.937939150392
 20
317.3002047107766
 30
0.0
 41
1.0
 10
265.8281398731377
 20
317.6782145015814
 30
0.0
 41
1.0
 10
265.6752802152394
 20
318.1278715108414
 30
0.0
 41
1.0
 10
265.4895821590847
 20
318.5872231387524
 30
0.0
 41
1.0
 10
265.2837230833477
 20
319.0229954968053
 30
0.0
 41
1.0
 10
265.0698677536651
 20
319.4235468636761
 30
0.0
 41
1.0
 10
264.8655660639026
 20
319.7621998025839
 30
0.0
 41
1.0
 10
264.6655631771444
 20
320.0628275408285
 30
0.0
 41
1.0
 10
264.4970769820604
 20
320.2983464109766
 30
0.0
 41
1.0
 10
264.2723075848118
 20
320.5907552249882
 30
0.0
 41
1.0
 10
263.9940126520272
 20
320.920921712906
 30
0.0
 41
1.0
 10
263.7174513108724
 20
321.2138421791351
 30
0.0
 41
1.0
 10
263.4338639195133
 20
321.4926712243031
 30
0.0
 41
1.0
 10
263.1826022980656
 20
321.7225991502091
 30
0.0
 41
1.0
 10
262.809636507682
 20
322.0365079961001
 30
0.0
 41
1.0
 10
262.455566816873
 20
322.3077499276833
 30
0.0
 41
1.0
 10
262.031186274295
 20
322.6041326612666
 30
0.0
 41
1.0
 10
261.6146594687178
 20
322.8719023059621
 30
0.0
 41
1.0
 10
261.1769982116369
 20
323.1281129700456
 30
0.0
 41
1.0
 10
260.6985038651399
 20
323.3846206659486
 30
0.0
 41
1.0
 10
260.2893999898467
 20
323.5830404687316
 30
0.0
 41
1.0
 10
259.8771441644819
 20
323.7662759744889
 30
0.0
 41
1.0
 10
259.4811863519587
 20
323.9314956598568
 30
0.0
 41
1.0
 10
258.9926943193252
 20
324.1174137244416
 30
0.0
 41
1.0
 10
258.4464903773466
 20
324.3048196499504
 30
0.0
 41
1.0
 10
257.9245446419093
 20
324.4666862863973
 30
0.0
 41
1.0
 10
257.3519535025915
 20
324.6276539155288
 30
0.0
 41
1.0
 10
256.6842449862841
 20
324.7954175008753
 30
0.0
 41
1.0
 10
255.8847102122839
 20
324.9688462389422
 30
0.0
 41
1.0
 10
255.058112207784
 20
325.1195244351343
 30
0.0
 41
1.0
 10
254.2602237903378
 20
325.2426520051658
 30
0.0
 41
1.0
 10
253.5100190328506
 20
325.3417899251254
 30
0.0
 41
0.9999999999999996
 10
252.648728962178
 20
325.4386912652893
 30
0.0
 41
0.9999999999999998
 10
251.7006521236688
 20
325.5243412574646
 30
0.0
 41
1.0
 10
250.6924179935675
 20
325.5958747122513
 30
0.0
 41
1.0
 10
249.5826372001064
 20
325.6582514185833
 30
0.0
 41
1.0
 10
248.3637482770603
 20
325.7069048732906
 30
0.0
 41
1.0
 10
246.9301540408336
 20
325.7425865554318
 30
0.0
 41
1.0
 10
245.061998808593
 20
325.7670198121942
 30
0.0
 41
0.9999999999999998
 10
243.629958611444
 20
325.7694225399664
 30
0.0
 41
1.0
 10
242.7123365859159
 20
325.7688532410961
 30
0.0
 41
1.0
  0
SPLINE
  5
42
330
2
100
AcDbEntity
  8
OUTLINE
  6
CONTINUOUS
100
AcDbSpline
210
0.0
220
0.0
230
1.0
 70
    12
 71
     3
 72
    27
 73
    23
 74
     0
 42
0.0000000001
 43
0.0000000001
 40
0.0
 40
0.0
 40
0.0
 40
0.0
 40
0.0482537348891826
 40
0.0907570918396296
 40
0.1602130021164609
 40
0.2435890967895355
 40
0.3443559619181333
 40
0.3923647071289584
 40
0.3923647071289584
 40
0.4355934215950291
 40
0.5007480883232791
 40
0.5486978790770177
 40
0.6100740534030324
 40
0.6461847166060836
 40
0.6800044462385465
 40
0.7356965488388421
 40
0.7860864860843085
 40
0.8256200206804928
 40
0.8687193669090643
 40
0.9093476936459307
 40
0.9559582790903624
 40
1.0
 40
1.0
 40
1.0
 40
1.0
 10
267.7873800051455
 20
314.1505990417591
 30
0.0
 41
1.0
 10
267.7700407111373
 20
314.0354129548263
 30
0.0
 41
1.0
 10
267.7422602200166
 20
313.8528259430076
 30
0.0
 41
0.9999999999999998
 10
267.6820329204486
 20
313.5020398815531
 30
0.0
 41
1.0
 10
267.6002540054791
 20
313.0886957576031
 30
0.0
 41
1.0
 10
267.4756261063123
 20
312.5610884724896
 30
0.0
 41
1.0
 10
267.3259664013607
 20
312.0816208788101
 30
0.0
 41
1.0
 10
267.2375949907594
 20
311.7640577971787
 30
0.0
 41
1.0
 10
267.1746898566178
 20
311.5406061186295
 30
0.0
 41
1.0
 10
267.1005367476181
 20
311.3207358301065
 30
0.0
 41
1.0
 10
266.995185287122
 20
310.9742748320769
 30
0.0
 41
1.0
 10
266.8716722853827
 20
310.6098508044023
 30
0.0
 41
1.0
 10
266.7667271371681
 20
310.311991901855
 30
0.0
 41
1.0
 10
266.6709312157329
 20
310.0519377228298
 30
0.0
 41
1.0
 10
266.5793030581756
 20
309.809294896701
 30
0.0
 41
1.0
 10
266.4781550258297
 20
309.5490064619502
 30
0.0
 41
1.0
 10
266.3764114624175
 20
309.2931095382733
 30
0.0
 41
1.0
 10
266.2876226013748
 20
309.0730203704934
 30
0.0
 41
1.0
 10
266.2097174586859
 20
308.8819691472286
 30
0.0
 41
1.0
 10
266.1328863650804
 20
308.6951831949596
 30
0.0
 41
1.0
 10
266.0620145536544
 20
308.5241870483278
 30
0.0
 41
1.0
 10
266.0182443842335
 20
308.4192403103633
 30
0.0
 41
1.0
 10
265.9982936230083
 20
308.3714991143111
 30
0.0
 41
1.0
  0
SPLINE
  5
43
330
2
100
AcDbEntity
  8
OUTLINE
  6
CONTINUOUS
100
AcDbSpline
210
0.0
220
0.0
230
1.0
 70
    12
 71
     3
 72
    71
 73
    67
 74
     0
 42
0.0000000001
 43
0.0000000001
 40
0.0
 40
0.0
 40
0.0
 40
0.0
 40
0.0127513913194001
 40
0.022613513020882
 40
0.0426752622562469
 40
0.0610132607262759
 40
0.0696665337219808
 40
0.094851763990422
 40
0.1079565452279749
 40
0.1209199709344468
 40
0.1398320458397165
 40
0.1623847667495504
 40
0.1739216936450431
 40
0.1880275655598904
 40
0.1947342359057566
 40
0.2142201770637287
 40
0.2163418353119992
 40
0.2163418353119992
 40
0.2348880901639323
 40
0.2546529531713631
 40
0.2621089302217096
 40
0.2812891602204904
 40
0.2870615232707971
 40
0.3063812708419307
 40
0.3276547814103684
 40
0.3494608036368153
 40
0.3632120833387251
 40
0.3756887288938353
 40
0.3968235431608341
 40
0.4108852971758397
 40
0.4292167057730678
 40
0.4374959389538391
 40
0.4561290735175393
 40
0.4669809760625914
 40
0.4669809760625914
 40
0.483310513985304
 40
0.5011930979447961
 40
0.5120467563960789
 40
0.528021802965229
 40
0.540117577909999
 40
0.5511011914772813
 40
0.5723870021351038
 40
0.5818028990303647
 40
0.5947322790476485
 40
0.6118195620901177
 40
0.6289818795776525
 40
0.6437777238519757
 40
0.6573803275713212
 40
0.6723663912303861
 40
0.6838241286771854
 40
0.6971161000336458
 40
0.7115397646147425
 40
0.7325648732022037
 40
0.7493398840552038
 40
0.7679072921611638
 40
0.7831192761359019
 40
0.8038890615807064
 40
0.8198468801258709
 40
0.8378290541349016
 40
0.8568657138356943
 40
0.878776783460146
 40
0.9028244068297567
 40
0.9327826069220543
 40
0.9599773789934511
 40
0.9851871496684159
 40
1.0
 40
1.0
 40
1.0
 40
1.0
 10
267.7873647906179
 20
314.1506017117027
 30
0.0
 41
1.0
 10
267.8174796792316
 20
314.3076069810358
 30
0.0
 41
1.0
 10
267.8674946203108
 20
314.5866201579893
 30
0.0
 41
1.0
 10
267.9527621195692
 20
315.1138276875477
 30
0.0
 41
1.0
 10
268.0333792747617
 20
315.7119411475856
 30
0.0
 41
1.0
 10
268.084558350961
 20
316.2980905905046
 30
0.0
 41
1.0
 10
268.1259599196877
 20
316.9487251253258
 30
0.0
 41
1.0
 10
268.1483516540145
 20
317.5346524504484
 30
0.0
 41
1.0
 10
268.1543438171583
 20
318.174148217845
 30
0.0
 41
0.9999999999999998
 10
268.147020509149
 20
318.7351301358789
 30
0.0
 41
1.0
 10
268.1183547704488
 20
319.4131383623279
 30
0.0
 41
1.0
 10
268.0628360195363
 20
320.0716448291573
 30
0.0
 41
1.0
 10
267.9899860818553
 20
320.6675191896006
 30
0.0
 41
1.0
 10
267.9291592369767
 20
321.0667611303802
 30
0.0
 41
0.9999999999999996
 10
267.8417879680054
 20
321.5590049099354
 30
0.0
 41
1.0
 10
267.7660102520101
 20
321.9177541995928
 30
0.0
 41
1.0
 10
267.706605850586
 20
322.1653157233345
 30
0.0
 41
1.0
 10
267.6403240200787
 20
322.4407902301931
 30
0.0
 41
1.0
 10
267.5247502249674
 20
322.8685152498783
 30
0.0
 41
1.0
 10
267.3478112141032
 20
323.4238535657096
 30
0.0
 41
1.0
 10
267.1523555158731
 20
323.9659238335356
 30
0.0
 41
1.0
 10
267.0023449290691
 20
324.3413988017601
 30
0.0
 41
1.0
 10
266.781321328013
 20
324.8467243477562
 30
0.0
 41
1.0
 10
266.5326154574826
 20
325.3689749435571
 30
0.0
 41
1.0
 10
266.1624634426091
 20
326.0571854683376
 30
0.0
 41
1.0
 10
265.7945624115453
 20
326.6684407434468
 30
0.0
 41
0.9999999999999996
 10
265.4638939245327
 20
327.1735960893175
 30
0.0
 41
1.0
 10
265.1243057548089
 20
327.6630150924662
 30
0.0
 41
1.0
 10
264.7650973088388
 20
328.1445613274531
 30
0.0
 41
1.0
 10
264.3449899660826
 20
328.6700798972423
 30
0.0
 41
1.0
 10
264.0130559549251
 20
329.0591191766511
 30
0.0
 41
1.0
 10
263.6341548523308
 20
329.4799609277207
 30
0.0
 41
1.0
 10
263.2986164520624
 20
329.8335286436377
 30
0.0
 41
1.0
 10
263.0524800683604
 20
330.0762691230411
 30
0.0
 41
1.0
 10
262.784380183063
 20
330.3396753053448
 30
0.0
 41
1.0
 10
262.4921848522498
 20
330.6114965509323
 30
0.0
 41
1.0
 10
262.0582135246812
 20
330.9949967623083
 30
0.0
 41
1.0
 10
261.6271083744298
 20
331.3526641301864
 30
0.0
 41
1.0
 10
261.2420120345144
 20
331.6558161699708
 30
0.0
 41
1.0
 10
260.8480368177609
 20
331.9483079925126
 30
0.0
 41
1.0
 10
260.3929328889955
 20
332.2701217095996
 30
0.0
 41
1.0
 10
259.9557737801345
 20
332.558231504182
 30
0.0
 41
1.0
 10
259.4892818346837
 20
332.8448753596822
 30
0.0
 41
1.0
 10
259.0618715156005
 20
333.0939835826093
 30
0.0
 41
1.0
 10
258.541659624704
 20
333.3754691245131
 30
0.0
 41
1.0
 10
257.9901745779869
 20
333.6483903565968
 30
0.0
 41
1.0
 10
257.4691934582777
 20
333.8850525042035
 30
0.0
 41
1.0
 10
256.9661987074812
 20
334.0963470112201
 30
0.0
 41
1.0
 10
256.4957601089466
 20
334.2786447419006
 30
0.0
 41
1.0
 10
256.0239027830673
 20
334.4481754811177
 30
0.0
 41
1.0
 10
255.5543647430939
 20
334.6051257657946
 30
0.0
 41
1.0
 10
254.9646420332912
 20
334.7867069914592
 30
0.0
 41
1.0
 10
254.3259585979848
 20
334.9632783437005
 30
0.0
 41
1.0
 10
253.629956374644
 20
335.1345189006825
 30
0.0
 41
1.0
 10
253.0008719532868
 20
335.272827570112
 30
0.0
 41
0.9999999999999998
 10
252.3174296065702
 20
335.4074369434848
 30
0.0
 41
1.0
 10
251.6624942336336
 20
335.5217350019275
 30
0.0
 41
1.0
 10
250.9691191992468
 20
335.6284941211361
 30
0.0
 41
1.0
 10
250.2950735472429
 20
335.7204437371514
 30
0.0
 41
1.0
 10
249.5424876148848
 20
335.8098709039754
 30
0.0
 41
1.0
 10
248.7095540583748
 20
335.8940160140765
 30
0.0
 41
1.0
 10
247.7336200164284
 20
335.9749159351376
 30
0.0
 41
1.0
 10
246.6865899506363
 20
336.0415044975329
 30
0.0
 41
1.0
 10
245.6227769830391
 20
336.0896162040363
 30
0.0
 41
1.0
 10
244.7520616856248
 20
336.1152904936929
 30
0.0
 41
1.0
 10
244.2357625246657
 20
336.1245520032226
 30
0.0
 41
1.0
 10
244.0443910105372
 20
336.1271630517013
 30
0.0
 41
1.0
  0
SPLINE
  5
44
330
2
100
AcDbEntity
  8
OUTLINE
  6
CONTINUOUS
100
AcDbSpline
210
0.0
220
0.0
230
1.0
 70
    12
 71
     3
 72
    55
 73
    51
 74
     0
 42
0.0000000001
 43
0.0000000001
 40
0.0
 40
0.0
 40
0.0
 40
0.0
 40
0.085870120968057
 40
0.1344572653469252
 40
0.1765439049243397
 40
0.2221041839008177
 40
0.250862372823705
 40
0.2829336780804231
 40
0.3184713150221184
 40
0.3430529515493125
 40
0.3672006933382044
 40
0.3922247637795175
 40
0.4220470043450368
 40
0.4502452635319477
 40
0.4735194233361204
 40
0.49068449614777
 40
0.5097977628411749
 40
0.5284634942939636
 40
0.5490618402394813
 40
0.5629330468394508
 40
0.5726340169231347
 40
0.595792691233412
 40
0.6103263028648889
 40
0.6294997263735841
 40
0.6484599245730935
 40
0.661366421962369
 40
0.6834920403711731
 40
0.6953167668555677
 40
0.7130272217230927
 40
0.7198088468925621
 40
0.7379585410062399
 40
0.7564124695766833
 40
0.7665953171803574
 40
0.7781033487390713
 40
0.7879586995932577
 40
0.8059492153639945
 40
0.8211931204027465
 40
0.8374065454767041
 40
0.8583747783865762
 40
0.8749844054986038
 40
0.8888972004162488
 40
0.9010047579415465
 40
0.9151183392551676
 40
0.9313602322246444
 40
0.9451780230303572
 40
0.9535078621497095
 40
0.97505264527139
 40
0.9873850304239264
 40
0.9972365073208319
 40
1.0
 40
1.0
 40
1.0
 40
1.0
 10
242.7112094730881
 20
327.3439375346839
 30
0.0
 41
1.0
 10
243.6310557696268
 20
327.3445783980004
 30
0.0
 41
1.0
 10
245.0696480543768
 20
327.3423996075147
 30
0.0
 41
1.0
 10
246.9596895095385
 20
327.3172336429242
 30
0.0
 41
1.0
 10
248.4176312008143
 20
327.2792293845522
 30
0.0
 41
1.0
 10
249.6627680828249
 20
327.22658595757
 30
0.0
 41
1.0
 10
250.799715061333
 20
327.1587691367249
 30
0.0
 41
1.0
 10
251.828551144625
 20
327.0821826469441
 30
0.0
 41
1.0
 10
252.8113283984382
 20
326.9906191184558
 30
0.0
 41
1.0
 10
253.7074029874342
 20
326.8859596125984
 30
0.0
 41
1.0
 10
254.4896814949468
 20
326.7785845264548
 30
0.0
 41
1.0
 10
255.3247629014588
 20
326.6447707318366
 30
0.0
 41
1.0
 10
256.1984526391956
 20
326.4794809368432
 30
0.0
 41
1.0
 10
257.0476133348496
 20
326.2880863599903
 30
0.0
 41
1.0
 10
257.7587998584875
 20
326.1028909248248
 30
0.0
 41
1.0
 10
258.3710772869943
 20
325.9250363157303
 30
0.0
 41
1.0
 10
258.9314464071393
 20
325.7459836116182
 30
0.0
 41
1.0
 10
259.520915468029
 20
325.5381352035592
 30
0.0
 41
1.0
 10
260.0509595440374
 20
325.3313130387774
 30
0.0
 41
1.0
 10
260.4857850676042
 20
325.1453537784755
 30
0.0
 41
1.0
 10
260.9409790012477
 20
324.9377788048692
 30
0.0
 41
1.0
 10
261.3953120970549
 20
324.7113977746067
 30
0.0
 41
1.0
 10
261.9284037987229
 20
324.4172963547435
 30
0.0
 41
1.0
 10
262.4115389340706
 20
324.1263710393878
 30
0.0
 41
1.0
 10
262.867716097683
 20
323.8253178405998
 30
0.0
 41
1.0
 10
263.3383302522523
 20
323.4896369453713
 30
0.0
 41
1.0
 10
263.7343886580832
 20
323.1813142954342
 30
0.0
 41
1.0
 10
264.1556557125052
 20
322.8229020458885
 30
0.0
 41
1.0
 10
264.4418188357438
 20
322.5594507212645
 30
0.0
 41
1.0
 10
264.7669630672516
 20
322.2390172675658
 30
0.0
 41
1.0
 10
265.0862549146789
 20
321.9014059721926
 30
0.0
 41
1.0
 10
265.4105206319921
 20
321.5193248807768
 30
0.0
 41
1.0
 10
265.6740998460161
 20
321.1798079578348
 30
0.0
 41
1.0
 10
265.8721881004988
 20
320.9061947675769
 30
0.0
 41
1.0
 10
266.1078234352451
 20
320.5568949766548
 30
0.0
 41
1.0
 10
266.3491169107008
 20
320.1634292254416
 30
0.0
 41
1.0
 10
266.6022343700185
 20
319.6982978563068
 30
0.0
 41
1.0
 10
266.8462742679059
 20
319.1926493619011
 30
0.0
 41
1.0
 10
267.0667243805591
 20
318.6602066370696
 30
0.0
 41
1.0
 10
267.2483641015103
 20
318.1395359054517
 30
0.0
 41
1.0
 10
267.3789129663143
 20
317.702100614034
 30
0.0
 41
1.0
 10
267.485861038526
 20
317.2858861083751
 30
0.0
 41
1.0
 10
267.5819773961783
 20
316.8414508213373
 30
0.0
 41
1.0
 10
267.6614535853149
 20
316.3751013803448
 30
0.0
 41
1.0
 10
267.7127235986906
 20
315.9672277658688
 30
0.0
 41
1.0
 10
267.7564711559524
 20
315.5014923639683
 30
0.0
 41
1.0
 10
267.7774783066873
 20
315.0498503371668
 30
0.0
 41
1.0
 10
267.7830568017441
 20
314.5817269818572
 30
0.0
 41
1.0
 10
267.7859059580685
 20
314.3148883427556
 30
0.0
 41
1.0
 10
267.78712935487
 20
314.18011436901
 30
0.0
 41
1.0
 10
267.7873800074447
 20
314.1505987710484
 30
0.0
 41
1.0
  0
SPLINE
  5
45
330
2
100
AcDbEntity
  8
OUTLINE
  6
CONTINUOUS
100
AcDbSpline
210
0.0
220
0.0
230
1.0
 70
    12
 71
     3
 72
    39
 73
    35
 74
     0
 42
0.0000000001
 43
0.0000000001
 40
0.0
 40
0.0
 40
0.0
 40
0.0
 40
0.0002364911996213
 40
0.0219313635523887
 40
0.0434416331803948
 40
0.0647532755720898
 40
0.0859097073273405
 40
0.1047683900067856
 40
0.1235395659092091
 40
0.1422410727889803
 40
0.1793966653305849
 40
0.1979472733347505
 40
0.2220173530556572
 40
0.2461442964101835
 40
0.2672268912881471
 40
0.2884036355644706
 40
0.3096916792476641
 40
0.3332401112551467
 40
0.3569535916476513
 40
0.3808478480915684
 40
0.4273915306963832
 40
0.4509358984249643
 40
0.4989665285978214
 40
0.5462446375171705
 40
0.5928098752379081
 40
0.6412788806611474
 40
0.6944160449150952
 40
0.7227175985208074
 40
0.7795344956794633
 40
0.8355177968967309
 40
0.8858987848465346
 40
0.94067040637931
 40
0.9740336337721171
 40
1.0
 40
1.0
 40
1.0
 40
1.0
 10
242.7123377575679
 20
325.7689421755558
 30
0.0
 41
1.0
 10
242.7120710290404
 20
325.7689598634975
 30
0.0
 41
1.0
 10
242.6907195328721
 20
325.7703751631043
 30
0.0
 41
1.0
 10
242.6444025898303
 20
325.7736702456909
 30
0.0
 41
1.0
 10
242.5783296320549
 20
325.7790678542529
 30
0.0
 41
1.0
 10
242.5117970399326
 20
325.7851909949936
 30
0.0
 41
1.0
 10
242.448167459201
 20
325.7917420417998
 30
0.0
 41
1.0
 10
242.3871998366211
 20
325.7986598299703
 30
0.0
 41
1.0
 10
242.3289724560461
 20
325.80586043427
 30
0.0
 41
1.0
 10
242.2522186976242
 20
325.816148433189
 30
0.0
 41
0.9999999999999996
 10
242.176504152552
 20
325.8275068241118
 30
0.0
 41
1.0
 10
242.0966445559146
 20
325.8407948751436
 30
0.0
 41
1.0
 10
242.0307937346931
 20
325.8525983075993
 30
0.0
 41
1.0
 10
241.9637599409095
 20
325.8656073726084
 30
0.0
 41
1.0
 10
241.9008365189108
 20
325.8787094500908
 30
0.0
 41
0.9999999999999998
 10
241.8418534668393
 20
325.8917853310026
 30
0.0
 41
1.0
 10
241.7819522076969
 20
325.9058882861696
 30
0.0
 41
1.0
 10
241.7213029524985
 20
325.9210628703421
 30
0.0
 41
1.0
 10
241.6600938297373
 20
325.9373461883028
 30
0.0
 41
1.0
 10
241.5814622760712
 20
325.9595413441271
 30
0.0
 41
1.0
 10
241.5064890756829
 20
325.9825682132087
 30
0.0
 41
1.0
 10
241.4166332589778
 20
326.0124179569111
 30
0.0
 41
1.0
 10
241.3306817930326
 20
326.0432989206938
 30
0.0
 41
1.0
 10
241.2350268336571
 20
326.0812543911428
 30
0.0
 41
0.9999999999999982
 10
241.1457681502159
 20
326.1201955401324
 30
0.0
 41
1.000000000000001
 10
241.0597218120587
 20
326.1614610292641
 30
0.0
 41
1.0
 10
240.9905866878442
 20
326.1981455556193
 30
0.0
 41
1.0
 10
240.9222768403523
 20
326.2374757750666
 30
0.0
 41
1.0
 10
240.8581219453257
 20
326.2778457672016
 30
0.0
 41
1.0
 10
240.7923196219271
 20
326.3246657735653
 30
0.0
 41
0.9999999999999992
 10
240.7350807725854
 20
326.3708334589523
 30
0.0
 41
0.9999999999999996
 10
240.6924208598204
 20
326.4103265626358
 30
0.0
 41
1.0
 10
240.6617929248917
 20
326.4426282116001
 30
0.0
 41
1.0
 10
240.6474486555647
 20
326.4593225327339
 30
0.0
 41
1.0
 10
240.641474250025
 20
326.4666065833162
 30
0.0
 41
1.0
  0
ARC
  5
46
330
2
100
AcDbEntity
  8
OUTLINE
  6
CONTINUOUS
100
AcDbCircle
 10
250.5524629519245
 20
317.6616157877498
 30
0.0
 40
19.15049310699018
100
AcDbArc
 50
359.6414212789013
 51
74.77937028459695
  0
ARC
  5
47
330
2
100
AcDbEntity
  8
OUTLINE
  6
CONTINUOUS
100
AcDbCircle
 10
250.5524629519245
 20
317.6616157877498
 30
0.0
 40
19.15049310699018
100
AcDbArc
 50
352.1522341016991
 51
74.77937028459695
  0
LINE
  5
48
330
2
100
AcDbEntity
  8
OUTLINE
  6
CONTINUOUS
100
AcDbLine
 10
242.7112251812008
 20
328.5536629857864
 30
0.0
 11
242.7113195040316
 21
335.633337119752
 31
0.0
  0
LINE
  5
49
330
2
100
AcDbEntity
  8
OUTLINE
  6
CONTINUOUS
100
AcDbLine
 10
241.703426946466
 20
328.3124461447801
 30
0.0
 11
241.703426946466
 21
336.8471851975551
 31
0.0
  0
ARC
  5
4A
330
2
100
AcDbEntity
  8
OUTLINE
  6
CONTINUOUS
100
AcDbCircle
 10
242.7462862994891
 20
288.9709524300797
 30
0.0
 40
48.88415345731704
100
AcDbArc
 50
74.77936797390326
 51
90.04095064479839
  0
ARC
  5
4B
330
2
100
AcDbEntity
  8
OUTLINE
  6
CONTINUOUS
100
AcDbCircle
 10
242.7113476363076
 20
336.8471851975551
 30
0.0
 40
1.007920689841588
100
AcDbArc
 50
90.00000000000005
 51
180.0
  0
ARC
  5
4C
330
2
100
AcDbEntity
  8
OUTLINE
  6
CONTINUOUS
100
AcDbCircle
 10
253.9548311216659
 20
318.9065557760383
 30
0.0
 40
16.12673091530543
100
AcDbArc
 50
279.0254472307004
 51
314.2924564209008
  0
ARC
  5
4D
330
2
100
AcDbEntity
  8
OUTLINE
  6
CONTINUOUS
100
AcDbCircle
 10
267.5332403635028
 20
305.4201734640171
 30
0.0
 40
3.023762069524766
100
AcDbArc
 50
122.0617648194984
 51
140.0128965217021
  0
ARC
  5
4E
330
2
100
AcDbEntity
  8
OUTLINE
  6
CONTINUOUS
100
AcDbCircle
 10
257.5418289862071
 20
316.698254916012
 30
0.0
 40
12.09504827809906
100
AcDbArc
 50
313.8971707417981
 51
352.1522344008976
  0
ARC
  5
4F
330
2
100
AcDbEntity
  8
OUTLINE
  6
CONTINUOUS
100
AcDbCircle
 10
242.6027382340356
 20
329.4716913992708
 30
0.0
 40
2.130516960287192
100
AcDbArc
 50
242.0229213238028
 51
272.9183679177011
  0
ARC
  5
50
330
2
100
AcDbEntity
  8
OUTLINE
  6
CONTINUOUS
100
AcDbCircle
 10
240.6955062566246
 20
328.3124461447801
 30
0.0
 40
1.007920689841588
100
AcDbArc
 50
270.0
 51
0.0
  0
LINE
  5
51
330
2
100
AcDbEntity
  8
OUTLINE
  6
CONTINUOUS
100
AcDbLine
 10
238.5565641281159
 20
327.3045254549386
 30
0.0
 11
240.6955062566246
 21
327.3045254549386
 31
0.0
  0
ARC
  5
52
330
2
100
AcDbEntity
  8
OUTLINE
  6
CONTINUOUS
100
AcDbCircle
 10
245.4165853301758
 20
372.6603906531503
 30
0.0
 40
70.5544482889112
100
AcDbArc
 50
269.7705308835018
 51
279.1919451233033
  0
LINE
  5
53
330
2
100
AcDbEntity
  8
OUTLINE
  6
CONTINUOUS
100
AcDbLine
 10
245.1340161117634
 20
302.1065082088989
 30
0.0
 11
238.5565641281159
 21
302.1065082088988
 31
0.0
  0
LINE
  5
54
330
2
100
AcDbEntity
  8
0
  6
CONTINUOUS
100
AcDbLine
 10
238.5565641281159
 20
329.7172284963061
 30
0.0
 11
238.5565641281159
 21
304.5192112502663
 31
0.0
  0
LINE
  5
55
330
2
100
AcDbEntity
  8
OUTLINE
  6
CONTINUOUS
100
AcDbLine
 10
180.4510963704283
 20
336.6463934605868
 30
0.0
 11
180.4510963704283
 21
396.2545888326973
 31
0.0
  0
ARC
  5
56
330
2
100
AcDbEntity
  8
OUTLINE
  6
CONTINUOUS
100
AcDbCircle
 10
-411.4703314897063
 20
458.9770340575471
 30
0.0
 40
604.8484254680288
100
AcDbArc
 50
348.331431661897
 51
359.8960857776076
  0
ARC
  5
57
330
2
100
AcDbEntity
  8
OUTLINE
  6
CONTINUOUS
100
AcDbCircle
 10
830.4779919882967
 20
458.9770340575551
 30
0.0
 40
604.8484254680781
100
AcDbArc
 50
180.112864702069
 51
191.6685683381027
  0
LINE
  5
58
330
2
100
AcDbEntity
  8
OUTLINE
  6
CONTINUOUS
100
AcDbLine
 10
180.4505788106006
 20
397.2557830458266
 30
0.0
 11
180.451103364323
 21
412.2831378636574
 31
0.0
  0
LINE
  5
59
330
2
100
AcDbEntity
  8
OUTLINE
  6
CONTINUOUS
100
AcDbLine
 10
238.5565571342211
 20
412.2831378636574
 30
0.0
 11
238.5570816875426
 21
397.2557830458266
 31
0.0
  0
LINE
  5
5A
330
2
100
AcDbEntity
  8
OUTLINE
  6
CONTINUOUS
100
AcDbLine
 10
238.5565641281159
 20
396.5545888326973
 30
0.0
 11
228.8592953677854
 21
396.5545888326973
 31
0.0
  0
LINE
  5
5B
330
2
100
AcDbEntity
  8
OUTLINE
  6
CONTINUOUS
100
AcDbLine
 10
238.5570816875426
 20
397.2557830458266
 30
0.0
 11
228.7869541916875
 21
397.2557830458266
 31
0.0
  0
LINE
  5
5C
330
2
100
AcDbEntity
  8
OUTLINE
  6
CONTINUOUS
100
AcDbLine
 10
182.905551473986
 20
397.2557830458266
 30
0.0
 11
182.905551473986
 21
396.5545888326973
 31
0.0
  0
LINE
  5
5D
330
2
100
AcDbEntity
  8
OUTLINE
  6
CONTINUOUS
100
AcDbLine
 10
180.4510963704283
 20
396.5545888326973
 30
0.0
 11
180.4510963704283
 21
396.1163880092371
 31
0.0
  0
LINE
  5
5E
330
2
100
AcDbEntity
  8
OUTLINE
  6
CONTINUOUS
100
AcDbLine
 10
236.1021090245584
 20
397.2557830458266
 30
0.0
 11
236.1021090245584
 21
396.5545888326973
 31
0.0
  0
LINE
  5
5F
330
2
100
AcDbEntity
  8
OUTLINE
  6
CONTINUOUS
100
AcDbLine
 10
180.451103364323
 20
412.2831378636574
 30
0.0
 11
191.5730316686888
 21
412.2831378636574
 31
0.0
  0
LINE
  5
60
330
2
100
AcDbEntity
  8
OUTLINE
  6
CONTINUOUS
100
AcDbLine
 10
180.9830754881145
 20
412.2876344117822
 30
0.0
 11
180.4295683731666
 21
412.8411415267303
 31
0.0
  0
LINE
  5
61
330
2
100
AcDbEntity
  8
OUTLINE
  6
CONTINUOUS
100
AcDbLine
 10
238.5876340409944
 20
412.7885436165898
 30
0.0
 11
238.0867248361869
 21
412.2876344117822
 31
0.0
  0
LINE
  5
62
330
2
100
AcDbEntity
  8
OUTLINE
  6
CONTINUOUS
100
AcDbLine
 10
180.4821802710961
 20
412.7885436165898
 30
0.0
 11
191.6119524002611
 21
412.7885436165898
 31
0.0
  0
LINE
  5
63
330
2
100
AcDbEntity
  8
OUTLINE
  6
CONTINUOUS
100
AcDbLine
 10
227.3957080982806
 20
412.7885436165898
 30
0.0
 11
238.5876340409944
 21
412.7885436165898
 31
0.0
  0
LINE
  5
64
330
2
100
AcDbEntity
  8
OUTLINE
  6
CONTINUOUS
100
AcDbLine
 10
227.4346288298529
 20
412.2831378636574
 30
0.0
 11
238.5565571342211
 21
412.2831378636574
 31
0.0
  0
LINE
  5
65
330
2
100
AcDbEntity
  8
OUTLINE
  6
CONTINUOUS
100
AcDbLine
 10
190.2207063068539
 20
397.2557830458266
 30
0.0
 11
180.4505788106006
 21
397.2557830458266
 31
0.0
  0
LINE
  5
66
330
2
100
AcDbEntity
  8
OUTLINE
  6
CONTINUOUS
100
AcDbLine
 10
190.1483651307563
 20
396.5545888326973
 30
0.0
 11
180.4510963704283
 21
396.5545888326973
 31
0.0
  0
LINE
  5
67
330
2
100
AcDbEntity
  8
OUTLINE
  6
CONTINUOUS
100
AcDbLine
 10
238.5565641281159
 20
290.361875
 30
0.0
 11
180.4510963704283
 21
290.361875
 31
0.0
  0
ARC
  5
68
330
2
100
AcDbEntity
  8
OUTLINE
  6
CONTINUOUS
100
AcDbCircle
 10
440.9024837301883
 20
414.1173784317794
 30
0.0
 40
260.4727864999786
100
AcDbArc
 50
171.0197644519994
 51
180.1345810736005
  0
ARC
  5
69
330
2
100
AcDbEntity
  8
OUTLINE
  6
CONTINUOUS
100
AcDbCircle
 10
-21.88345765157043
 20
414.1173784317794
 30
0.0
 40
260.4727864999786
100
AcDbArc
 50
359.8538490139997
 51
8.980235548000182
  0
LINE
  5
6A
330
2
100
AcDbEntity
  8
OUTLINE
  6
CONTINUOUS
100
AcDbLine
 10
220.2733781522338
 20
455.6618749999998
 30
0.0
 11
209.5038302488694
 21
455.6618749999998
 31
0.0
  0
LINE
  5
6B
330
2
100
AcDbEntity
  8
OUTLINE
  6
CONTINUOUS
100
AcDbLine
 10
198.7342823455048
 20
455.6618749999998
 30
0.0
 11
209.5038302488694
 21
455.6618749999998
 31
0.0
  0
LINE
  5
6C
330
2
100
AcDbEntity
  8
OUTLINE
  6
CONTINUOUS
100
AcDbLine
 10
197.4820093334856
 20
456.3848873462191
 30
0.0
 11
221.525651164253
 21
456.3848873462191
 31
0.0
  0
LINE
  5
6D
330
2
100
AcDbEntity
  8
OUTLINE
  6
CONTINUOUS
100
AcDbLine
 10
197.4820093334856
 20
456.3848873462191
 30
0.0
 11
198.7342823455048
 21
455.6618749999998
 31
0.0
  0
LINE
  5
6E
330
2
100
AcDbEntity
  8
OUTLINE
  6
CONTINUOUS
100
AcDbLine
 10
197.4820093334856
 20
467.6836959153836
 30
0.0
 11
197.4820093334856
 21
456.3848873462191
 31
0.0
  0
LINE
  5
6F
330
2
100
AcDbEntity
  8
OUTLINE
  6
CONTINUOUS
100
AcDbLine
 10
221.525651164253
 20
467.6836959153836
 30
0.0
 11
221.525651164253
 21
456.3848873462191
 31
0.0
  0
LINE
  5
70
330
2
100
AcDbEntity
  8
OUTLINE
  6
CONTINUOUS
100
AcDbLine
 10
221.525651164253
 20
456.3848873462191
 30
0.0
 11
220.2733781522338
 21
455.6618749999998
 31
0.0
  0
ARC
  5
71
330
2
100
AcDbEntity
  8
OUTLINE
  6
CONTINUOUS
100
AcDbCircle
 10
203.4132762268526
 20
451.6480001058323
 30
0.0
 40
20.03636820232423
100
AcDbArc
 50
162.1623221028644
 51
171.0197644519998
  0
ARC
  5
72
330
2
100
AcDbEntity
  8
OUTLINE
  6
CONTINUOUS
100
AcDbCircle
 10
215.6057498517709
 20
451.6480001058313
 30
0.0
 40
20.03636820232423
100
AcDbArc
 50
8.980235548000182
 51
17.83767789713863
  0
LINE
  5
73
330
2
100
AcDbEntity
  8
OUTLINE
  6
CONTINUOUS
100
AcDbLine
 10
181.1275066347167
 20
457.7855677092784
 30
0.0
 11
197.4820093334856
 21
457.7855677092784
 31
0.0
  0
ARC
  5
74
330
2
100
AcDbEntity
  8
OUTLINE
  6
CONTINUOUS
100
AcDbCircle
 10
251.4678399114574
 20
458.9735616114896
 30
0.0
 40
70.35036471117013
100
AcDbArc
 50
156.9320207159738
 51
180.9675894706584
  0
ARC
  5
75
330
2
100
AcDbEntity
  8
OUTLINE
  6
CONTINUOUS
100
AcDbCircle
 10
204.0001925352166
 20
479.7443770737608
 30
0.0
 40
19.21252653168841
100
AcDbArc
 50
101.9362782458175
 51
150.5186085275466
  0
ARC
  5
76
330
2
100
AcDbEntity
  8
OUTLINE
  6
CONTINUOUS
100
AcDbCircle
 10
190.0249065369976
 20
487.2653014262582
 30
0.0
 40
3.361776002422575
100
AcDbArc
 50
144.8727870052383
 51
250.1084954697923
  0
ARC
  5
77
330
2
100
AcDbEntity
  8
OUTLINE
  6
CONTINUOUS
100
AcDbCircle
 10
189.9645715331585
 20
501.9243593939608
 30
0.0
 40
17.85317306938078
100
AcDbArc
 50
266.5206870208791
 51
287.0843618436247
  0
LINE
  5
78
330
2
100
AcDbEntity
  8
OUTLINE
  6
CONTINUOUS
100
AcDbLine
 10
197.4820093334856
 20
467.6836959153836
 30
0.0
 11
209.5038302484638
 21
467.6836959153836
 31
0.0
  0
ARC
  5
79
330
2
100
AcDbEntity
  8
OUTLINE
  6
CONTINUOUS
100
AcDbCircle
 10
214.5441934818435
 20
475.8212131080886
 30
0.0
 40
21.36409853241612
100
AcDbArc
 50
156.6447467384335
 51
194.781487446767
  0
ARC
  5
7A
330
2
100
AcDbEntity
  8
OUTLINE
  6
CONTINUOUS
100
AcDbCircle
 10
207.3850100319744
 20
472.3100823926128
 30
0.0
 40
17.72052053521605
100
AcDbArc
 50
106.2469412744363
 51
128.1864629847264
  0
ARC
  5
7B
330
2
100
AcDbEntity
  8
OUTLINE
  6
CONTINUOUS
100
AcDbCircle
 10
208.9286826939085
 20
471.3720501490477
 30
0.0
 40
28.59066339785073
100
AcDbArc
 50
88.84732473454754
 51
108.1414356866257
  0
ARC
  5
7C
330
2
100
AcDbEntity
  8
OUTLINE
  6
CONTINUOUS
100
AcDbCircle
 10
209.517025672831
 20
437.6401343896923
 30
0.0
 40
48.01704639104511
100
AcDbArc
 50
76.05375746597665
 51
104.4060004728845
  0
ARC
  5
7D
330
2
100
AcDbEntity
  8
OUTLINE
  6
CONTINUOUS
100
AcDbCircle
 10
197.0857436385523
 20
470.901841916218
 30
0.0
 40
3.242451261571629
100
AcDbArc
 50
189.4312840716203
 51
277.0197671281658
  0
ARC
  5
7F
330
2
100
AcDbEntity
  8
OUTLINE
  6
CONTINUOUS
100
AcDbCircle
 10
167.5398205855301
 20
458.9735616122472
 30
0.0
 40
70.35036471117013
100
AcDbArc
 50
359.032410528307
 51
23.06797928077285
  0
ARC
  5
80
330
2
100
AcDbEntity
  8
OUTLINE
  6
CONTINUOUS
100
AcDbCircle
 10
215.0074679637685
 20
479.7443770736613
 30
0.0
 40
19.21252653168841
100
AcDbArc
 50
29.48139147141896
 51
78.06372175314812
  0
ARC
  5
81
330
2
100
AcDbEntity
  8
OUTLINE
  6
CONTINUOUS
100
AcDbCircle
 10
228.9827539621231
 20
487.2653014259066
 30
0.0
 40
3.361776002422575
100
AcDbArc
 50
289.8915045291731
 51
35.12721299372726
  0
ARC
  5
82
330
2
100
AcDbEntity
  8
OUTLINE
  6
CONTINUOUS
100
AcDbCircle
 10
229.0430889662271
 20
501.924359393608
 30
0.0
 40
17.85317306938078
100
AcDbArc
 50
252.9156381553407
 51
273.4793129780863
  0
LINE
  5
83
330
2
100
AcDbEntity
  8
OUTLINE
  6
CONTINUOUS
100
AcDbLine
 10
221.525651163659
 20
467.6836959151664
 30
0.0
 11
209.5038302486809
 21
467.6836959153836
 31
0.0
  0
ARC
  5
84
330
2
100
AcDbEntity
  8
OUTLINE
  6
CONTINUOUS
100
AcDbCircle
 10
210.0789778049253
 20
471.3720501490374
 30
0.0
 40
28.59066339785073
100
AcDbArc
 50
71.85856431233981
 51
91.15267526441805
  0
ARC
  5
85
330
2
100
AcDbEntity
  8
OUTLINE
  6
CONTINUOUS
100
AcDbCircle
 10
221.9219168586505
 20
470.9018419159938
 30
0.0
 40
3.242451261571629
100
AcDbArc
 50
262.9802328707997
 51
350.5687159273453
  0
LINE
  5
87
330
2
100
AcDbEntity
  8
OUTLINE
  6
CONTINUOUS
100
AcDbLine
 10
237.880153862211
 20
457.7855677092784
 30
0.0
 11
221.5256511634421
 21
457.7855677092784
 31
0.0
  0
ARC
  5
88
330
2
100
AcDbEntity
  8
OUTLINE
  6
CONTINUOUS
100
AcDbCircle
 10
209.5038302485483
 20
467.8183293170127
 30
0.0
 40
22.63904861102389
100
AcDbArc
 50
71.78491408700129
 51
108.2150859129987
  0
ARC
  5
89
330
2
100
AcDbEntity
  8
OUTLINE
  6
CONTINUOUS
100
AcDbCircle
 10
199.5208953892273
 20
482.3084494379146
 30
0.0
 40
5.0
100
AcDbArc
 50
128.1864629847264
 51
156.6447467384331
  0
ARC
  5
8A
330
2
100
AcDbEntity
  8
OUTLINE
  6
CONTINUOUS
100
AcDbCircle
 10
204.4898578638187
 20
475.8212131080886
 30
0.0
 40
21.36409853241612
100
AcDbArc
 50
345.2185125532328
 51
23.35525326156631
  0
ARC
  5
8B
330
2
100
AcDbEntity
  8
OUTLINE
  6
CONTINUOUS
100
AcDbCircle
 10
211.6490413136876
 20
472.3100823926128
 30
0.0
 40
17.72052053521605
100
AcDbArc
 50
51.81353701527356
 51
73.75305872556352
  0
ARC
  5
8C
330
2
100
AcDbEntity
  8
OUTLINE
  6
CONTINUOUS
100
AcDbCircle
 10
219.5131559564349
 20
482.3084494379146
 30
0.0
 40
5.0
100
AcDbArc
 50
23.35525326156676
 51
51.8135370152735
  0
POINT
  5
A5
330
2
100
AcDbEntity
  8
OUTLINE
 62
     5
100
AcDbPoint
 10
209.503830249272
 20
290.361875
 30
0.0
  0
ENDSEC
  0
SECTION
  2
OBJECTS
  0
DICTIONARY
  5
A
330
0
100
AcDbDictionary
  3
ACAD_COLOR
350
33
  3
ACAD_GROUP
350
2F
  3
ACAD_LAYOUT
350
F
  3
ACAD_MATERIAL
350
32
  3
ACAD_MLINESTYLE
350
30
  3
ACAD_PLOTSETTINGS
350
31
  3
ACAD_PLOTSTYLENAME
350
9
  3
ACAD_TABLESTYLE
350
34
  3
ACDBVARIABLEDICTIONARY
350
8E
  3
ACDBHEADERROUNDTRIPXREC
350
BA
  0
DICTIONARY
  5
18
330
17
100
AcDbDictionary
280
     1
  3
ACAD_LAYERFILTERS
360
19
  3
ACLYDICTIONARY
360
1A
  0
DICTIONARY
  5
3
330
2
100
AcDbDictionary
280
     1
  3
ACAD_LAYOUTSELFREF
360
DB
  3
ACAD_SORTENTS
360
8D
  0
DICTIONARY
  5
12
330
11
100
AcDbDictionary
280
     1
  3
ACAD_LAYOUTSELFREF
360
DC
  0
DICTIONARY
  5
33
102
{ACAD_REACTORS
330
A
102
}
330
A
100
AcDbDictionary
  0
DICTIONARY
  5
2F
102
{ACAD_REACTORS
330
A
102
}
330
A
100
AcDbDictionary
  0
DICTIONARY
  5
F
102
{ACAD_REACTORS
330
A
102
}
330
A
100
AcDbDictionary
  0
DICTIONARY
  5
32
102
{ACAD_REACTORS
330
A
102
}
330
A
100
AcDbDictionary
  0
DICTIONARY
  5
30
102
{ACAD_REACTORS
330
A
102
}
330
A
100
AcDbDictionary
  3
STANDARD
350
38
  0
DICTIONARY
  5
31
102
{ACAD_REACTORS
330
A
102
}
330
A
100
AcDbDictionary
  0
ACDBDICTIONARYWDFLT
  5
9
102
{ACAD_REACTORS
330
A
102
}
330
A
100
AcDbDictionary
281
     1
  3
Normal
350
8
100
AcDbDictionaryWithDefault
340
8
1001
ACAD
1000
TREAT_AS_HARD
1070
     0
  0
DICTIONARY
  5
34
102
{ACAD_REACTORS
330
A
102
}
330
A
100
AcDbDictionary
  3
STANDARD
350
39
  0
DICTIONARY
  5
8E
102
{ACAD_REACTORS
330
A
102
}
330
A
100
AcDbDictionary
  3
CTABLESTYLE
350
8F
  3
DIMASSOC
350
9E
  3
HIDETEXT
350
9D
  3
PROJECTNAME
350
9F
  0
DICTIONARY
  5
BA
102
{ACAD_REACTORS
330
A
102
}
330
A
100
AcDbDictionary
  3
TSTACKALIGN
350
BB
  3
TSTACKSIZE
350
BC
  3
HYPERLINKBASE
350
BD
  3
STYLESHEET
350
BE
  3
LAYOUTDICT
350
BF
  3
PLOTSETDICT
350
C0
  3
PLOTSTYLNAMDICT
350
C1
  3
LWETCUNION
350
C2
  3
INSUNITS
350
C3
  3
CEPSNTYPE
350
C4
  3
FINGERPRINTGUID
350
C5
  3
VERSIONGUID
350
C6
  3
PSVPSCALE
350
C7
  3
DIMSTYLEDATA
350
C8
  3
PUCSORTHOREF
350
C9
  3
PUCSORTHOVIEW
350
CA
  3
PUCSBASE
350
CB
  3
PUCSORGTOP
350
CC
  3
PUCSORGBOTTOM
350
CD
  3
PUCSORGLEFT
350
CE
  3
PUCSORGRIGHT
350
CF
  3
PUCSORGFRONT
350
D0
  3
PUCSORGBACK
350
D1
  3
UCSORTHOREF
350
D2
  3
UCSORTHOVIEW
350
D3
  3
UCSBASE
350
D4
  3
UCSORGTOP
350
D5
  3
UCSORGBOTTOM
350
D6
  3
UCSORGLEFT
350
D7
  3
UCSORGRIGHT
350
D8
  3
UCSORGFRONT
350
D9
  3
UCSORGBACK
350
DA
  0
DICTIONARY
  5
19
102
{ACAD_REACTORS
330
18
102
}
330
18
100
AcDbDictionary
  0
DICTIONARY
  5
1A
102
{ACAD_REACTORS
330
18
102
}
330
18
100
AcDbDictionary
1001
ACAD
1000
<All
  0
XRECORD
  5
DB
102
{ACAD_REACTORS
330
3
102
}
330
3
100
AcDbXrecord
340
2
  0
SORTENTSTABLE
  5
8D
102
{ACAD_REACTORS
330
3
102
}
330
3
100
AcDbSortentsTable
330
2
  0
XRECORD
  5
DC
102
{ACAD_REACTORS
330
12
102
}
330
12
100
AcDbXrecord
340
11
  0
MLINESTYLE
  5
38
102
{ACAD_REACTORS
330
30
102
}
330
30
100
AcDbMlineStyle
  2
STANDARD
 70
     0
  3

 62
   256
 51
90.0
 52
90.0
 71
     2
 49
0.5
 62
   256
  6
BYLAYER
 49
-0.5
 62
   256
  6
BYLAYER
  0
ACDBPLACEHOLDER
  5
8
102
{ACAD_REACTORS
330
9
102
}
330
9
100
AcDbPlaceHolder
280
     0
  0
ACAD_PROXY_OBJECT
  5
39
102
{ACAD_REACTORS
330
34
102
}
330
34
100
AcDbProxyObject
 90
      499
 91
      506
 93
     1841
310
4214DD185B99185C9928B81E85EB51B8AE3F2E07A17AD46E2B8FC02B5E8DC0F42B1CFD028000000C1008070000C3001FDFF8000000C1003FBFF000000182007F7FE00000030400FEFFC00000060801FDFF8000000C1003FBFF00000018200000000000000681FA0B0000001820100E000186003FBFF000000182007F7FE000
310
00030400FEFFC00000060801FDFF8000000C1003FBFF000000182007F7FE000000304000AD7A3703D0AC73F4160000003040201C00030C007F7FE00000030400FEFFC00000060801FDFF8000000C1003FBFF000000182007F7FE00000030400FEFFC000000608000
340
1C
340
1C
340
1C
 94
        0
1001
ACAD
1000
AcadProxyRoundTripData
1071
      503
1071
   393239
1070
     0
  0
DICTIONARYVAR
  5
8F
102
{ACAD_REACTORS
330
8E
102
}
330
8E
100
DictionaryVariables
280
     0
  1
STANDARD
  0
DICTIONARYVAR
  5
9E
102
{ACAD_REACTORS
330
8E
102
}
330
8E
100
DictionaryVariables
280
     0
  1
1
  0
DICTIONARYVAR
  5
9D
102
{ACAD_REACTORS
330
8E
102
}
330
8E
100
DictionaryVariables
280
     0
  1
1
  0
DICTIONARYVAR
  5
9F
102
{ACAD_REACTORS
330
8E
102
}
330
8E
100
DictionaryVariables
280
     0
  1

  0
XRECORD
  5
BB
102
{ACAD_REACTORS
330
BA
102
}
330
BA
100
AcDbXrecord
 90
        1
  0
XRECORD
  5
BC
102
{ACAD_REACTORS
330
BA
102
}
330
BA
100
AcDbXrecord
 90
       70
  0
XRECORD
  5
BD
102
{ACAD_REACTORS
330
BA
102
}
330
BA
100
AcDbXrecord
  1

  0
XRECORD
  5
BE
102
{ACAD_REACTORS
330
BA
102
}
330
BA
100
AcDbXrecord
  1

  0
XRECORD
  5
BF
102
{ACAD_REACTORS
330
BA
102
}
330
BA
100
AcDbXrecord
340
F
  0
XRECORD
  5
C0
102
{ACAD_REACTORS
330
BA
102
}
330
BA
100
AcDbXrecord
340
31
  0
XRECORD
  5
C1
102
{ACAD_REACTORS
330
BA
102
}
330
BA
100
AcDbXrecord
340
9
  0
XRECORD
  5
C2
102
{ACAD_REACTORS
330
BA
102
}
330
BA
100
AcDbXrecord
 90
    10781
  0
XRECORD
  5
C3
102
{ACAD_REACTORS
330
BA
102
}
330
BA
100
AcDbXrecord
 90
        0
  0
XRECORD
  5
C4
102
{ACAD_REACTORS
330
BA
102
}
330
BA
100
AcDbXrecord
 90
        0
  0
XRECORD
  5
C5
102
{ACAD_REACTORS
330
BA
102
}
330
BA
100
AcDbXrecord
  1
{6B26D72B-9302-4EEB-B778-24A185C9A862}
  0
XRECORD
  5
C6
102
{ACAD_REACTORS
330
BA
102
}
330
BA
100
AcDbXrecord
  1
{8F87A07B-200C-44DB-A6BB-1B12BE69C7F7}
  0
XRECORD
  5
C7
102
{ACAD_REACTORS
330
BA
102
}
330
BA
100
AcDbXrecord
 40
0.0
  0
XRECORD
  5
C8
102
{ACAD_REACTORS
330
BA
102
}
330
BA
100
AcDbXrecord
1000
DSTYLE
1002
{
1070
    79
 70
     2
1070
   341
340
28
1070
   342
340
28
1002
}
  0
XRECORD
  5
C9
102
{ACAD_REACTORS
330
BA
102
}
330
BA
100
AcDbXrecord
340
0
  0
XRECORD
  5
CA
102
{ACAD_REACTORS
330
BA
102
}
330
BA
100
AcDbXrecord
 70
     0
  0
XRECORD
  5
CB
102
{ACAD_REACTORS
330
BA
102
}
330
BA
100
AcDbXrecord
340
0
  0
XRECORD
  5
CC
102
{ACAD_REACTORS
330
BA
102
}
330
BA
100
AcDbXrecord
 10
0.0
 20
0.0
 30
0.0
  0
XRECORD
  5
CD
102
{ACAD_REACTORS
330
BA
102
}
330
BA
100
AcDbXrecord
 10
0.0
 20
0.0
 30
0.0
  0
XRECORD
  5
CE
102
{ACAD_REACTORS
330
BA
102
}
330
BA
100
AcDbXrecord
 10
0.0
 20
0.0
 30
0.0
  0
XRECORD
  5
CF
102
{ACAD_REACTORS
330
BA
102
}
330
BA
100
AcDbXrecord
 10
0.0
 20
0.0
 30
0.0
  0
XRECORD
  5
D0
102
{ACAD_REACTORS
330
BA
102
}
330
BA
100
AcDbXrecord
 10
0.0
 20
0.0
 30
0.0
  0
XRECORD
  5
D1
102
{ACAD_REACTORS
330
BA
102
}
330
BA
100
AcDbXrecord
 10
0.0
 20
0.0
 30
0.0
  0
XRECORD
  5
D2
102
{ACAD_REACTORS
330
BA
102
}
330
BA
100
AcDbXrecord
340
0
  0
XRECORD
  5
D3
102
{ACAD_REACTORS
330
BA
102
}
330
BA
100
AcDbXrecord
 70
     0
  0
XRECORD
  5
D4
102
{ACAD_REACTORS
330
BA
102
}
330
BA
100
AcDbXrecord
340
0
  0
XRECORD
  5
D5
102
{ACAD_REACTORS
330
BA
102
}
330
BA
100
AcDbXrecord
 10
0.0
 20
0.0
 30
0.0
  0
XRECORD
  5
D6
102
{ACAD_REACTORS
330
BA
102
}
330
BA
100
AcDbXrecord
 10
0.0
 20
0.0
 30
0.0
  0
XRECORD
  5
D7
102
{ACAD_REACTORS
330
BA
102
}
330
BA
100
AcDbXrecord
 10
0.0
 20
0.0
 30
0.0
  0
XRECORD
  5
D8
102
{ACAD_REACTORS
330
BA
102
}
330
BA
100
AcDbXrecord
 10
0.0
 20
0.0
 30
0.0
  0
XRECORD
  5
D9
102
{ACAD_REACTORS
330
BA
102
}
330
BA
100
AcDbXrecord
 10
0.0
 20
0.0
 30
0.0
  0
XRECORD
  5
DA
102
{ACAD_REACTORS
330
BA
102
}
330
BA
100
AcDbXrecord
 10
0.0
 20
0.0
 30
0.0
  0
ENDSEC
  0
EOF
