  0
SECTION
  2
HEADER
  9
$ACADVER
  1
AC1009
  9
$INSBASE
 10
246.02817139598571
 20
19.898999911606431
 30
0.0
  9
$EXTMIN
 10
217.0495617774427
 20
19.885803937313419
 30
-0.0000000349181948
  9
$EXTMAX
 10
325.16418543779781
 20
290.0526587644739
 30
0.0000000814935746
  9
$LIMMIN
 10
0.0
 20
0.0
  9
$LIMMAX
 10
420.0
 20
297.0
  9
$ORTHOMODE
 70
     0
  9
$REGENMODE
 70
     1
  9
$FILLMODE
 70
     1
  9
$QTEXTMODE
 70
     0
  9
$MIRRTEXT
 70
     1
  9
$DRAGMODE
 70
     2
  9
$LTSCALE
 40
1.0
  9
$OSMODE
 70
    55
  9
$ATTMODE
 70
     1
  9
$TEXTSIZE
 40
2.5
  9
$TRACEWID
 40
1.0
  9
$TEXTSTYLE
  7
STANDARD
  9
$CLAYER
  8
0
  9
$CELTYPE
  6
BYLAYER
  9
$CECOLOR
 62
   256
  9
$DIMSCALE
 40
1.0
  9
$DIMASZ
 40
2.5
  9
$DIMEXO
 40
0.625
  9
$DIMDLI
 40
3.75
  9
$DIMRND
 40
0.0
  9
$DIMDLE
 40
0.0
  9
$DIMEXE
 40
1.25
  9
$DIMTP
 40
0.0
  9
$DIMTM
 40
0.0
  9
$DIMTXT
 40
2.5
  9
$DIMCEN
 40
2.5
  9
$DIMTSZ
 40
0.0
  9
$DIMTOL
 70
     0
  9
$DIMLIM
 70
     0
  9
$DIMTIH
 70
     0
  9
$DIMTOH
 70
     0
  9
$DIMSE1
 70
     0
  9
$DIMSE2
 70
     0
  9
$DIMTAD
 70
     1
  9
$DIMZIN
 70
     8
  9
$DIMBLK
  1

  9
$DIMASO
 70
     1
  9
$DIMSHO
 70
     1
  9
$DIMPOST
  1

  9
$DIMAPOST
  1

  9
$DIMALT
 70
     0
  9
$DIMALTD
 70
     3
  9
$DIMALTF
 40
0.03937007874016
  9
$DIMLFAC
 40
1.0
  9
$DIMTOFL
 70
     1
  9
$DIMTVP
 40
0.0
  9
$DIMTIX
 70
     0
  9
$DIMSOXD
 70
     0
  9
$DIMSAH
 70
     0
  9
$DIMBLK1
  1

  9
$DIMBLK2
  1

  9
$DIMSTYLE
  2
ISO-25
  9
$DIMCLRD
 70
     0
  9
$DIMCLRE
 70
     0
  9
$DIMCLRT
 70
     0
  9
$DIMTFAC
 40
1.0
  9
$DIMGAP
 40
0.625
  9
$LUNITS
 70
     2
  9
$LUPREC
 70
     4
  9
$SKETCHINC
 40
1.0
  9
$FILLETRAD
 40
10.0
  9
$AUNITS
 70
     0
  9
$AUPREC
 70
     0
  9
$MENU
  1
.
  9
$ELEVATION
 40
0.0
  9
$PELEVATION
 40
0.0
  9
$THICKNESS
 40
0.0
  9
$LIMCHECK
 70
     0
  9
$BLIPMODE
 70
     0
  9
$CHAMFERA
 40
10.0
  9
$CHAMFERB
 40
10.0
  9
$SKPOLY
 70
     0
  9
$TDCREATE
 40
2453440.8838832169
  9
$TDUPDATE
 40
2453440.888028414
  9
$TDINDWG
 40
0.0041462731
  9
$TDUSRTIMER
 40
0.0041460995
  9
$USRTIMER
 70
     1
  9
$ANGBASE
 50
0.0
  9
$ANGDIR
 70
     0
  9
$PDMODE
 70
     0
  9
$PDSIZE
 40
0.0
  9
$PLINEWID
 40
0.0
  9
$COORDS
 70
     1
  9
$SPLFRAME
 70
     0
  9
$SPLINETYPE
 70
     6
  9
$SPLINESEGS
 70
     8
  9
$ATTDIA
 70
     0
  9
$ATTREQ
 70
     1
  9
$HANDLING
 70
 10241
  9
$HANDSEED
  5
16B8
  9
$SURFTAB1
 70
     6
  9
$SURFTAB2
 70
     6
  9
$SURFTYPE
 70
     6
  9
$SURFU
 70
     6
  9
$SURFV
 70
     6
  9
$UCSNAME
  2

  9
$UCSORG
 10
0.0
 20
0.0
 30
0.0
  9
$UCSXDIR
 10
1.0
 20
0.0
 30
0.0
  9
$UCSYDIR
 10
0.0
 20
1.0
 30
0.0
  9
$PUCSNAME
  2

  9
$PUCSORG
 10
0.0
 20
0.0
 30
0.0
  9
$PUCSXDIR
 10
1.0
 20
0.0
 30
0.0
  9
$PUCSYDIR
 10
0.0
 20
1.0
 30
0.0
  9
$USERI1
 70
     0
  9
$USERI2
 70
     0
  9
$USERI3
 70
     0
  9
$USERI4
 70
     0
  9
$USERI5
 70
     0
  9
$USERR1
 40
0.0
  9
$USERR2
 40
0.0
  9
$USERR3
 40
0.0
  9
$USERR4
 40
0.0
  9
$USERR5
 40
0.0
  9
$WORLDVIEW
 70
     1
  9
$SHADEDGE
 70
     3
  9
$SHADEDIF
 70
    70
  9
$TILEMODE
 70
     1
  9
$MAXACTVP
 70
    64
  9
$PLIMCHECK
 70
     0
  9
$PEXTMIN
 10
1.0000000000000000E+020
 20
1.0000000000000000E+020
 30
1.0000000000000000E+020
  9
$PEXTMAX
 10
-1.0000000000000000E+020
 20
-1.0000000000000000E+020
 30
-1.0000000000000000E+020
  9
$PLIMMIN
 10
0.0
 20
0.0
  9
$PLIMMAX
 10
420.0
 20
297.0
  9
$UNITMODE
 70
     0
  9
$VISRETAIN
 70
     1
  9
$PLINEGEN
 70
     0
  9
$PSLTSCALE
 70
     1
  0
ENDSEC
  0
SECTION
  2
TABLES
  0
TABLE
  2
VPORT
 70
     7
  0
VPORT
  2
*ACTIVE
 70
     0
 10
0.0
 20
0.0
 11
1.0
 21
1.0
 12
271.10687360762029
 22
154.96923135089361
 13
0.0
 23
0.0
 14
10.0
 24
10.0
 15
10.0
 25
10.0
 16
0.0
 26
0.0
 36
1.0
 17
0.0
 27
0.0
 37
0.0
 40
273.40885708508642
 41
1.899799599198396
 42
50.0
 43
0.0
 44
0.0
 50
0.0
 51
0.0
 71
     0
 72
   100
 73
     1
 74
     3
 75
     0
 76
     0
 77
     0
 78
     0
  0
ENDTAB
  0
TABLE
  2
LTYPE
 70
     1
  0
LTYPE
  2
CONTINUOUS
 70
     0
  3
Solid line
 72
    65
 73
     0
 40
0.0
  0
ENDTAB
  0
TABLE
  2
LAYER
 70
     1
  0
LAYER
  2
0
 70
     0
 62
     7
  6
CONTINUOUS
  0
ENDTAB
  0
TABLE
  2
STYLE
 70
     1
  0
STYLE
  2
STANDARD
 70
     0
 40
0.0
 41
1.0
 50
0.0
 71
     0
 42
2.5
  3
romans.shx
  4
bigfont.shx
  0
ENDTAB
  0
TABLE
  2
VIEW
 70
     0
  0
ENDTAB
  0
TABLE
  2
UCS
 70
     0
  0
ENDTAB
  0
TABLE
  2
APPID
 70
     1
  0
APPID
  2
ACAD
 70
     0
  0
ENDTAB
  0
TABLE
  2
DIMSTYLE
 70
     2
  0
DIMSTYLE
  2
ISO-25
 70
     0
  3

  4

  5

  6

  7

 40
1.0
 41
2.5
 42
0.625
 43
3.75
 44
1.25
 45
0.0
 46
0.0
 47
0.0
 48
0.0
140
2.5
141
2.5
142
0.0
143
0.03937007874016
144
1.0
145
0.0
146
1.0
147
0.625
 71
     0
 72
     0
 73
     0
 74
     0
 75
     0
 76
     0
 77
     1
 78
     8
170
     0
171
     3
172
     1
173
     0
174
     0
175
     0
176
     0
177
     0
178
     0
  0
DIMSTYLE
  2
STANDARD
 70
     0
  3

  4

  5

  6

  7

 40
1.0
 41
0.18
 42
0.0625
 43
0.38
 44
0.18
 45
0.0
 46
0.0
 47
0.0
 48
0.0
140
0.18
141
0.09
142
0.0
143
25.399999999999999
144
1.0
145
0.0
146
1.0
147
0.09
 71
     0
 72
     0
 73
     1
 74
     1
 75
     0
 76
     0
 77
     0
 78
     0
170
     0
171
     2
172
     0
173
     0
174
     0
175
     0
176
     0
177
     0
178
     0
  0
ENDTAB
  0
ENDSEC
  0
SECTION
  2
BLOCKS
  0
BLOCK
  8
0
  2
$MODEL_SPACE
 70
     0
 10
0.0
 20
0.0
 30
0.0
  3
$MODEL_SPACE
  1

  0
ENDBLK
  5
21
  8
0
  0
BLOCK
 67
     1
  8
0
  2
$PAPER_SPACE
 70
     0
 10
0.0
 20
0.0
 30
0.0
  3
$PAPER_SPACE
  1

  0
ENDBLK
  5
1D
 67
     1
  8
0
  0
BLOCK
  8
0
  2
ＭＡ１４水栓-正面
 70
     0
 10
0.0
 20
0.0
 30
0.0
  3
ＭＡ１４水栓-正面
  1

  0
ARC
  5
131
  8
0
 10
471.26963099999989
 20
255.145174
 30
0.0
 40
500.0
 50
180.44453999999959
 51
183.94602499999999
  0
ARC
  5
132
  8
0
 10
-471.269631
 20
255.145174
 30
0.0
 40
500.0
 50
356.05397499999992
 51
359.55546000000021
  0
LINE
  5
133
  8
0
 10
61.849999999999987
 20
57.259022000000073
 30
0.0
 11
73.849999999999994
 21
57.259022000000073
 31
0.0
  0
LINE
  5
134
  8
0
 10
63.849999999999987
 20
60.0
 30
0.0
 11
71.849999999999994
 21
60.0
 31
0.0
  0
LINE
  5
135
  8
0
 10
63.849999999999987
 20
65.112838000000011
 30
0.0
 11
71.849999999999994
 21
65.112838000000011
 31
0.0
  0
LINE
  5
136
  8
0
 10
73.974857999999955
 20
27.5
 30
0.0
 11
52.850000000000001
 21
27.5
 31
0.0
  0
ARC
  5
137
  8
0
 10
-119.036739
 20
118.881764
 30
0.0
 40
100.0
 50
342.44231199999928
 51
359.33725899999951
  0
ARC
  5
138
  8
0
 10
119.0367389999999
 20
118.881764
 30
0.0
 40
100.0
 50
180.66274100000041
 51
197.55768800000061
  0
LINE
  5
139
  8
0
 10
26.000000000000028
 20
80.799999999999955
 30
0.0
 11
26.000000000000028
 21
150.19999999999999
 31
0.0
  0
LINE
  5
13A
  8
0
 10
-26.000000000000028
 20
80.799999999999955
 30
0.0
 11
-26.000000000000028
 21
150.19999999999999
 31
0.0
  0
LINE
  5
13B
  8
0
 10
25.000000000000028
 20
0.0
 30
0.0
 11
-25.000000000000028
 21
0.0
 31
0.0
  0
LINE
  5
13C
  8
0
 10
-25.95000000000001
 20
80.0
 30
0.0
 11
25.94999999999996
 21
80.0
 31
0.0
  0
LINE
  5
13D
  8
0
 10
25.94999999999996
 20
80.5
 30
0.0
 11
-25.95000000000001
 21
80.5
 31
0.0
  0
LINE
  5
13E
  8
0
 10
25.69999999999996
 20
3.0
 30
0.0
 11
-25.700000000000021
 21
3.0
 31
0.0
  0
LINE
  5
13F
  8
0
 10
-26.000000000000028
 20
79.700000000000045
 30
0.0
 11
26.000000000000028
 21
79.700000000000045
 31
0.0
  0
LINE
  5
140
  8
0
 10
-26.000000000000028
 20
3.3000000000000109
 30
0.0
 11
26.000000000000028
 21
3.3000000000000109
 31
0.0
  0
LINE
  5
141
  8
0
 10
-26.000000000000028
 20
79.700000000000045
 30
0.0
 11
-26.000000000000028
 21
3.3000000000000109
 31
0.0
  0
LINE
  5
142
  8
0
 10
-25.700000000000021
 20
3.0
 30
0.0
 11
-26.000000000000028
 21
3.3000000000000109
 31
0.0
  0
LINE
  5
143
  8
0
 10
-25.000000000000028
 20
3.0
 30
0.0
 11
-25.000000000000028
 21
0.0
 31
0.0
  0
ARC
  5
144
  8
0
 10
-25.700000000000021
 20
80.799999999999955
 30
0.0
 40
0.3
 50
180.0
 51
270.0
  0
LINE
  5
145
  8
0
 10
-25.95000000000001
 20
80.5
 30
0.0
 11
-25.95000000000001
 21
80.0
 31
0.0
  0
LINE
  5
146
  8
0
 10
-25.700000000000021
 20
80.0
 30
0.0
 11
-26.000000000000028
 21
79.700000000000045
 31
0.0
  0
ARC
  5
147
  8
0
 10
34.000000000000028
 20
19.5
 30
0.0
 40
8.0
 50
90.0
 51
180.0
  0
ARC
  5
148
  8
0
 10
45.228884999999963
 20
45.0
 30
0.0
 40
26.0
 50
137.69501000000031
 51
222.30498999999961
  0
LINE
  5
149
  8
0
 10
48.000000000000028
 20
62.5
 30
0.0
 11
48.000000000000028
 21
27.5
 31
0.0
  0
LINE
  5
14A
  8
0
 10
51.500000000000028
 20
62.5
 30
0.0
 11
51.500000000000028
 21
27.500007000000039
 31
0.0
  0
LINE
  5
14B
  8
0
 10
51.849999999999987
 20
61.5
 30
0.0
 11
51.849999999999987
 21
28.5
 31
0.0
  0
LINE
  5
14C
  8
0
 10
48.000000000000028
 20
27.5
 30
0.0
 11
34.000000000000028
 21
27.5
 31
0.0
  0
LINE
  5
14D
  8
0
 10
26.000000000000028
 20
3.3000000000000109
 30
0.0
 11
26.000000000000028
 21
19.5
 31
0.0
  0
LINE
  5
14E
  8
0
 10
25.69999999999996
 20
3.0
 30
0.0
 11
26.000000000000028
 21
3.3000000000000109
 31
0.0
  0
LINE
  5
14F
  8
0
 10
25.000000000000028
 20
3.0
 30
0.0
 11
25.000000000000028
 21
0.0
 31
0.0
  0
ARC
  5
150
  8
0
 10
52.850000000000001
 20
28.5
 30
0.0
 40
1.0
 50
180.0
 51
270.0
  0
LINE
  5
151
  8
0
 10
51.500000000000028
 20
27.500007000000039
 30
0.0
 11
48.000000000000028
 21
27.500007000000039
 31
0.0
  0
LINE
  5
152
  8
0
 10
34.000000000000028
 20
62.5
 30
0.0
 11
48.000000000000028
 21
62.5
 31
0.0
  0
ARC
  5
153
  8
0
 10
34.000000000000028
 20
70.5
 30
0.0
 40
8.0
 50
180.0
 51
270.0
  0
LINE
  5
154
  8
0
 10
26.000000000000028
 20
70.5
 30
0.0
 11
26.000000000000028
 21
79.700000000000045
 31
0.0
  0
ARC
  5
155
  8
0
 10
25.69999999999996
 20
80.799999999999955
 30
0.0
 40
0.3
 50
270.0
 51
0.0
  0
LINE
  5
156
  8
0
 10
25.94999999999996
 20
80.5
 30
0.0
 11
25.94999999999996
 21
80.0
 31
0.0
  0
LINE
  5
157
  8
0
 10
26.000000000000028
 20
79.700000000000045
 30
0.0
 11
25.69999999999996
 21
80.0
 31
0.0
  0
ARC
  5
158
  8
0
 10
63.849999999999987
 20
62.0
 30
0.0
 40
2.0
 50
180.0
 51
270.0
  0
ARC
  5
159
  8
0
 10
52.850000000000001
 20
61.5
 30
0.0
 40
1.0
 50
90.0
 51
180.0
  0
LINE
  5
15A
  8
0
 10
51.500000000000028
 20
29.999969000000078
 30
0.0
 11
51.849999999999987
 21
29.999969000000078
 31
0.0
  0
LINE
  5
15B
  8
0
 10
51.500000000000028
 20
60.000030000000031
 30
0.0
 11
51.849999999999987
 21
60.000030000000031
 31
0.0
  0
POLYLINE
  5
15C
  8
0
 66
     1
 10
0.0
 20
0.0
 30
0.0
  0
VERTEX
  5
1339
  8
0
 10
61.849999999999987
 20
60.0
 30
0.0
  0
VERTEX
  5
133A
  8
0
 10
61.816774999999978
 20
59.98622000000001
 30
0.0
  0
VERTEX
  5
133B
  8
0
 10
61.783534999999937
 20
59.972405000000087
 30
0.0
  0
VERTEX
  5
133C
  8
0
 10
61.750268999999967
 20
59.958521000000019
 30
0.0
  0
VERTEX
  5
133D
  8
0
 10
61.716961999999988
 20
59.94453400000009
 30
0.0
  0
VERTEX
  5
133E
  8
0
 10
61.683599999999977
 20
59.930409000000047
 30
0.0
  0
VERTEX
  5
133F
  8
0
 10
61.650170999999972
 20
59.916110000000117
 30
0.0
  0
VERTEX
  5
1340
  8
0
 10
61.616659999999939
 20
59.901605000000131
 30
0.0
  0
VERTEX
  5
1341
  8
0
 10
61.583052999999978
 20
59.886857999999961
 30
0.0
  0
VERTEX
  5
1342
  8
0
 10
61.549337999999942
 20
59.871834000000028
 30
0.0
  0
VERTEX
  5
1343
  8
0
 10
61.515501
 20
59.856499999999983
 30
0.0
  0
VERTEX
  5
1344
  8
0
 10
61.481527
 20
59.840820000000001
 30
0.0
  0
VERTEX
  5
1345
  8
0
 10
61.447404000000027
 20
59.82476000000009
 30
0.0
  0
VERTEX
  5
1346
  8
0
 10
61.413117999999962
 20
59.808286000000059
 30
0.0
  0
VERTEX
  5
1347
  8
0
 10
61.378654000000012
 20
59.791362000000049
 30
0.0
  0
VERTEX
  5
1348
  8
0
 10
61.34400099999997
 20
59.773956000000112
 30
0.0
  0
VERTEX
  5
1349
  8
0
 10
61.30914299999997
 20
59.756031
 30
0.0
  0
VERTEX
  5
134A
  8
0
 10
61.274067999999971
 20
59.737553000000041
 30
0.0
  0
VERTEX
  5
134B
  8
0
 10
61.238761999999973
 20
59.718487999999979
 30
0.0
  0
VERTEX
  5
134C
  8
0
 10
61.203210999999982
 20
59.698802000000107
 30
0.0
  0
VERTEX
  5
134D
  8
0
 10
61.167400999999948
 20
59.678459000000089
 30
0.0
  0
VERTEX
  5
134E
  8
0
 10
61.131318999999991
 20
59.6574260000001
 30
0.0
  0
VERTEX
  5
134F
  8
0
 10
61.09495199999995
 20
59.635667000000012
 30
0.0
  0
VERTEX
  5
1350
  8
0
 10
61.058285999999981
 20
59.613149000000021
 30
0.0
  0
VERTEX
  5
1351
  8
0
 10
61.021307
 20
59.589835999999991
 30
0.0
  0
VERTEX
  5
1352
  8
0
 10
60.984000999999949
 20
59.565694000000008
 30
0.0
  0
VERTEX
  5
1353
  8
0
 10
60.946355999999952
 20
59.540689000000043
 30
0.0
  0
VERTEX
  5
1354
  8
0
 10
60.908356999999938
 20
59.514786000000072
 30
0.0
  0
VERTEX
  5
1355
  8
0
 10
60.869990999999942
 20
59.487949999999962
 30
0.0
  0
VERTEX
  5
1356
  8
0
 10
60.831243999999991
 20
59.46014700000012
 30
0.0
  0
VERTEX
  5
1357
  8
0
 10
60.792102000000028
 20
59.431343000000084
 30
0.0
  0
VERTEX
  5
1358
  8
0
 10
60.752556999999939
 20
59.40151400000002
 30
0.0
  0
VERTEX
  5
1359
  8
0
 10
60.712617999999992
 20
59.370684000000097
 30
0.0
  0
VERTEX
  5
135A
  8
0
 10
60.672297999999977
 20
59.338886000000002
 30
0.0
  0
VERTEX
  5
135B
  8
0
 10
60.631610999999943
 20
59.306156000000101
 30
0.0
  0
VERTEX
  5
135C
  8
0
 10
60.590569999999992
 20
59.272527000000082
 30
0.0
  0
VERTEX
  5
135D
  8
0
 10
60.549188999999977
 20
59.238036000000079
 30
0.0
  0
VERTEX
  5
135E
  8
0
 10
60.50748200000001
 20
59.202715000000012
 30
0.0
  0
VERTEX
  5
135F
  8
0
 10
60.465461999999981
 20
59.166600000000017
 30
0.0
  0
VERTEX
  5
1360
  8
0
 10
60.42314300000001
 20
59.129725000000008
 30
0.0
  0
VERTEX
  5
1361
  8
0
 10
60.380537999999973
 20
59.09212500000001
 30
0.0
  0
VERTEX
  5
1362
  8
0
 10
60.33766099999994
 20
59.053834000000052
 30
0.0
  0
VERTEX
  5
1363
  8
0
 10
60.294525999999991
 20
59.014887000000051
 30
0.0
  0
VERTEX
  5
1364
  8
0
 10
60.251145999999977
 20
58.975319000000013
 30
0.0
  0
VERTEX
  5
1365
  8
0
 10
60.207534999999972
 20
58.935162999999989
 30
0.0
  0
VERTEX
  5
1366
  8
0
 10
60.163706999999953
 20
58.894453999999989
 30
0.0
  0
VERTEX
  5
1367
  8
0
 10
60.119673999999947
 20
58.853228000000058
 30
0.0
  0
VERTEX
  5
1368
  8
0
 10
60.075450999999958
 20
58.811516999999981
 30
0.0
  0
VERTEX
  5
1369
  8
0
 10
60.031050999999962
 20
58.769358000000011
 30
0.0
  0
VERTEX
  5
136A
  8
0
 10
59.98648799999998
 20
58.726785000000064
 30
0.0
  0
VERTEX
  5
136B
  8
0
 10
59.941774999999978
 20
58.683831000000062
 30
0.0
  0
VERTEX
  5
136C
  8
0
 10
59.896926999999977
 20
58.640533000000012
 30
0.0
  0
VERTEX
  5
136D
  8
0
 10
59.851954999999997
 20
58.596923000000061
 30
0.0
  0
VERTEX
  5
136E
  8
0
 10
59.806876000000017
 20
58.553037000000018
 30
0.0
  0
VERTEX
  5
136F
  8
0
 10
59.761700999999988
 20
58.508910000000007
 30
0.0
  0
VERTEX
  5
1370
  8
0
 10
59.716443999999989
 20
58.464574999999961
 30
0.0
  0
VERTEX
  5
1371
  8
0
 10
59.671120000000002
 20
58.420067000000017
 30
0.0
  0
VERTEX
  5
1372
  8
0
 10
59.625740999999969
 20
58.375422000000071
 30
0.0
  0
VERTEX
  5
1373
  8
0
 10
59.580320999999998
 20
58.33067200000005
 30
0.0
  0
VERTEX
  5
1374
  8
0
 10
59.534873999999967
 20
58.285853999999972
 30
0.0
  0
VERTEX
  5
1375
  8
0
 10
59.489412999999978
 20
58.241002000000087
 30
0.0
  0
SEQEND
  5
1376
  8
0
  0
LINE
  5
15D
  8
0
 10
59.325305999999983
 20
61.656044000000058
 30
0.0
 11
59.325305999999983
 21
59.229096000000027
 31
0.0
  0
LINE
  5
15E
  8
0
 10
48.000000000000028
 20
62.5
 30
0.0
 11
51.500000000000028
 21
62.5
 31
0.0
  0
LINE
  5
15F
  8
0
 10
59.489999999999981
 20
62.5
 30
0.0
 11
52.850000000000001
 21
62.5
 31
0.0
  0
POLYLINE
  5
160
  8
0
 66
     1
 10
0.0
 20
0.0
 30
0.0
  0
VERTEX
  5
1377
  8
0
 10
63.849999999999987
 20
65.112838000000011
 30
0.0
  0
VERTEX
  5
1378
  8
0
 10
63.799469999999957
 20
65.107894999999985
 30
0.0
  0
VERTEX
  5
1379
  8
0
 10
63.748947999999963
 20
65.102937999999995
 30
0.0
  0
VERTEX
  5
137A
  8
0
 10
63.69843999999997
 20
65.09795500000007
 30
0.0
  0
VERTEX
  5
137B
  8
0
 10
63.64795599999993
 20
65.092931000000021
 30
0.0
  0
VERTEX
  5
137C
  8
0
 10
63.597501999999992
 20
65.087852999999996
 30
0.0
  0
VERTEX
  5
137D
  8
0
 10
63.547084999999953
 20
65.082708000000025
 30
0.0
  0
VERTEX
  5
137E
  8
0
 10
63.496714999999959
 20
65.077482000000032
 30
0.0
  0
VERTEX
  5
137F
  8
0
 10
63.446396999999962
 20
65.072162000000048
 30
0.0
  0
VERTEX
  5
1380
  8
0
 10
63.396139999999967
 20
65.06673400000011
 30
0.0
  0
VERTEX
  5
1381
  8
0
 10
63.345950999999978
 20
65.061186000000021
 30
0.0
  0
VERTEX
  5
1382
  8
0
 10
63.295837999999982
 20
65.055502000000047
 30
0.0
  0
VERTEX
  5
1383
  8
0
 10
63.245807999999982
 20
65.049670999999989
 30
0.0
  0
VERTEX
  5
1384
  8
0
 10
63.195868999999988
 20
65.043678999999997
 30
0.0
  0
VERTEX
  5
1385
  8
0
 10
63.146029000000027
 20
65.037510999999995
 30
0.0
  0
VERTEX
  5
1386
  8
0
 10
63.096294999999969
 20
65.031155999999996
 30
0.0
  0
VERTEX
  5
1387
  8
0
 10
63.046674999999972
 20
65.024598000000083
 30
0.0
  0
VERTEX
  5
1388
  8
0
 10
62.997176000000003
 20
65.017826000000113
 30
0.0
  0
VERTEX
  5
1389
  8
0
 10
62.947804999999931
 20
65.010824999999954
 30
0.0
  0
VERTEX
  5
138A
  8
0
 10
62.898571999999973
 20
65.003582000000051
 30
0.0
  0
VERTEX
  5
138B
  8
0
 10
62.849481999999988
 20
64.996082999999999
 30
0.0
  0
VERTEX
  5
138C
  8
0
 10
62.800543999999967
 20
64.988315000000057
 30
0.0
  0
VERTEX
  5
138D
  8
0
 10
62.751764999999999
 20
64.980265000000031
 30
0.0
  0
VERTEX
  5
138E
  8
0
 10
62.70315199999996
 20
64.971919000000071
 30
0.0
  0
VERTEX
  5
138F
  8
0
 10
62.654714999999982
 20
64.963264000000095
 30
0.0
  0
VERTEX
  5
1390
  8
0
 10
62.606459000000001
 20
64.954286000000025
 30
0.0
  0
VERTEX
  5
1391
  8
0
 10
62.558391999999941
 20
64.944972000000121
 30
0.0
  0
VERTEX
  5
1392
  8
0
 10
62.510522999999949
 20
64.935307999999964
 30
0.0
  0
VERTEX
  5
1393
  8
0
 10
62.462858000000011
 20
64.925281000000041
 30
0.0
  0
VERTEX
  5
1394
  8
0
 10
62.41540599999999
 20
64.914877000000047
 30
0.0
  0
VERTEX
  5
1395
  8
0
 10
62.368172999999977
 20
64.904084000000125
 30
0.0
  0
VERTEX
  5
1396
  8
0
 10
62.321163999999982
 20
64.892882999999983
 30
0.0
  0
VERTEX
  5
1397
  8
0
 10
62.274366000000008
 20
64.881238000000053
 30
0.0
  0
VERTEX
  5
1398
  8
0
 10
62.227764000000001
 20
64.869110000000092
 30
0.0
  0
VERTEX
  5
1399
  8
0
 10
62.181342999999998
 20
64.856457999999975
 30
0.0
  0
VERTEX
  5
139A
  8
0
 10
62.135084999999968
 20
64.843243000000029
 30
0.0
  0
VERTEX
  5
139B
  8
0
 10
62.088976000000031
 20
64.829425000000015
 30
0.0
  0
VERTEX
  5
139C
  8
0
 10
62.042999999999978
 20
64.814964000000032
 30
0.0
  0
VERTEX
  5
139D
  8
0
 10
61.997140999999971
 20
64.79981900000007
 30
0.0
  0
VERTEX
  5
139E
  8
0
 10
61.951382999999993
 20
64.783951000000116
 30
0.0
  0
VERTEX
  5
139F
  8
0
 10
61.905709999999971
 20
64.767320000000041
 30
0.0
  0
VERTEX
  5
13A0
  8
0
 10
61.860106000000002
 20
64.74988600000006
 30
0.0
  0
VERTEX
  5
13A1
  8
0
 10
61.814556999999951
 20
64.731609000000049
 30
0.0
  0
VERTEX
  5
13A2
  8
0
 10
61.769044999999977
 20
64.71244999999999
 30
0.0
  0
VERTEX
  5
13A3
  8
0
 10
61.723555999999952
 20
64.69236699999999
 30
0.0
  0
VERTEX
  5
13A4
  8
0
 10
61.678072999999962
 20
64.671321000000034
 30
0.0
  0
VERTEX
  5
13A5
  8
0
 10
61.632580999999988
 20
64.649273000000093
 30
0.0
  0
VERTEX
  5
13A6
  8
0
 10
61.587062999999972
 20
64.626182000000085
 30
0.0
  0
VERTEX
  5
13A7
  8
0
 10
61.541504999999937
 20
64.602008000000069
 30
0.0
  0
VERTEX
  5
13A8
  8
0
 10
61.495889999999953
 20
64.576712000000043
 30
0.0
  0
VERTEX
  5
13A9
  8
0
 10
61.450202000000019
 20
64.550252999999984
 30
0.0
  0
VERTEX
  5
13AA
  8
0
 10
61.404425999999972
 20
64.522591000000034
 30
0.0
  0
VERTEX
  5
13AB
  8
0
 10
61.358545999999961
 20
64.493687000000023
 30
0.0
  0
VERTEX
  5
13AC
  8
0
 10
61.312547000000031
 20
64.463501000000065
 30
0.0
  0
VERTEX
  5
13AD
  8
0
 10
61.26641099999997
 20
64.431992000000037
 30
0.0
  0
VERTEX
  5
13AE
  8
0
 10
61.22012399999997
 20
64.399121000000036
 30
0.0
  0
VERTEX
  5
13AF
  8
0
 10
61.17366999999998
 20
64.364847000000054
 30
0.0
  0
VERTEX
  5
13B0
  8
0
 10
61.127033000000011
 20
64.329131000000075
 30
0.0
  0
VERTEX
  5
13B1
  8
0
 10
61.080198000000017
 20
64.291932999999972
 30
0.0
  0
VERTEX
  5
13B2
  8
0
 10
61.033147000000021
 20
64.25321299999996
 30
0.0
  0
VERTEX
  5
13B3
  8
0
 10
60.98586700000002
 20
64.212931000000026
 30
0.0
  0
VERTEX
  5
13B4
  8
0
 10
60.938343999999951
 20
64.171062000000006
 30
0.0
  0
VERTEX
  5
13B5
  8
0
 10
60.890582999999957
 20
64.12764500000003
 30
0.0
  0
VERTEX
  5
13B6
  8
0
 10
60.842592999999987
 20
64.082732000000064
 30
0.0
  0
VERTEX
  5
13B7
  8
0
 10
60.794380999999959
 20
64.036377000000016
 30
0.0
  0
VERTEX
  5
13B8
  8
0
 10
60.745956000000007
 20
63.988634000000047
 30
0.0
  0
VERTEX
  5
13B9
  8
0
 10
60.697324999999999
 20
63.939555000000041
 30
0.0
  0
VERTEX
  5
13BA
  8
0
 10
60.648497999999989
 20
63.889194999999972
 30
0.0
  0
VERTEX
  5
13BB
  8
0
 10
60.599482000000002
 20
63.837607000000048
 30
0.0
  0
VERTEX
  5
13BC
  8
0
 10
60.550285999999943
 20
63.784844000000021
 30
0.0
  0
VERTEX
  5
13BD
  8
0
 10
60.500916999999987
 20
63.730959000000091
 30
0.0
  0
VERTEX
  5
13BE
  8
0
 10
60.451384999999988
 20
63.676006000000022
 30
0.0
  0
VERTEX
  5
13BF
  8
0
 10
60.40169599999998
 20
63.62003900000002
 30
0.0
  0
VERTEX
  5
13C0
  8
0
 10
60.351860000000023
 20
63.563110000000052
 30
0.0
  0
VERTEX
  5
13C1
  8
0
 10
60.301884000000001
 20
63.505273000000102
 30
0.0
  0
VERTEX
  5
13C2
  8
0
 10
60.251776999999969
 20
63.446582000000042
 30
0.0
  0
VERTEX
  5
13C3
  8
0
 10
60.201546999999977
 20
63.38709000000005
 30
0.0
  0
VERTEX
  5
13C4
  8
0
 10
60.151201999999977
 20
63.326851000000033
 30
0.0
  0
VERTEX
  5
13C5
  8
0
 10
60.100750999999981
 20
63.265917000000059
 30
0.0
  0
VERTEX
  5
13C6
  8
0
 10
60.050200999999987
 20
63.204341999999997
 30
0.0
  0
VERTEX
  5
13C7
  8
0
 10
59.999560000000002
 20
63.142180000000053
 30
0.0
  0
VERTEX
  5
13C8
  8
0
 10
59.948837999999931
 20
63.079484000000093
 30
0.0
  0
VERTEX
  5
13C9
  8
0
 10
59.89804199999994
 20
63.016306999999983
 30
0.0
  0
VERTEX
  5
13CA
  8
0
 10
59.847180000000002
 20
62.952703000000042
 30
0.0
  0
VERTEX
  5
13CB
  8
0
 10
59.796260999999987
 20
62.888725000000022
 30
0.0
  0
VERTEX
  5
13CC
  8
0
 10
59.745292999999968
 20
62.824427000000007
 30
0.0
  0
VERTEX
  5
13CD
  8
0
 10
59.694283999999953
 20
62.759861999999998
 30
0.0
  0
VERTEX
  5
13CE
  8
0
 10
59.643241000000017
 20
62.695083000000068
 30
0.0
  0
VERTEX
  5
13CF
  8
0
 10
59.592175000000019
 20
62.630144000000087
 30
0.0
  0
VERTEX
  5
13D0
  8
0
 10
59.541090999999959
 20
62.565099000000032
 30
0.0
  0
VERTEX
  5
13D1
  8
0
 10
59.489999999999981
 20
62.5
 30
0.0
  0
SEQEND
  5
13D2
  8
0
  0
ARC
  5
161
  8
0
 10
63.849999999999987
 20
63.112838000000011
 30
0.0
 40
2.0
 50
90.0
 51
180.0
  0
LINE
  5
162
  8
0
 10
61.849999999999987
 20
63.112838000000011
 30
0.0
 11
61.849999999999987
 21
62.0
 31
0.0
  0
LINE
  5
163
  8
0
 10
16.721970999999961
 20
204.59131600000001
 30
0.0
 11
19.04342799999997
 21
117.725088
 31
0.0
  0
POLYLINE
  5
164
  8
0
 66
     1
 10
0.0
 20
0.0
 30
0.0
  0
VERTEX
  5
13D3
  8
0
 10
25.500000000000021
 20
207.93432899999999
 30
0.0
  0
VERTEX
  5
13D4
  8
0
 10
25.112597999999959
 20
208.703248
 30
0.0
  0
VERTEX
  5
13D5
  8
0
 10
23.96216199999995
 20
209.44880399999991
 30
0.0
  0
VERTEX
  5
13D6
  8
0
 10
22.08364799999995
 20
210.14834300000001
 30
0.0
  0
VERTEX
  5
13D7
  8
0
 10
19.534132999999962
 20
210.78061
 30
0.0
  0
VERTEX
  5
13D8
  8
0
 10
16.391083999999999
 20
211.32639499999999
 30
0.0
  0
VERTEX
  5
13D9
  8
0
 10
12.75000000000003
 20
211.769114
 30
0.0
  0
VERTEX
  5
13DA
  8
0
 10
8.7215139999999831
 20
212.095314
 30
0.0
  0
VERTEX
  5
13DB
  8
0
 10
4.42802899999998
 20
212.295085
 30
0.0
  0
VERTEX
  5
13DC
  8
0
 10
0.0
 20
212.362357
 30
0.0
  0
VERTEX
  5
13DD
  8
0
 10
-4.4280290000000093
 20
212.295085
 30
0.0
  0
VERTEX
  5
13DE
  8
0
 10
-8.7215140000000133
 20
212.095314
 30
0.0
  0
VERTEX
  5
13DF
  8
0
 10
-12.75000000000003
 20
211.769114
 30
0.0
  0
VERTEX
  5
13E0
  8
0
 10
-16.391083999999999
 20
211.32639499999999
 30
0.0
  0
VERTEX
  5
13E1
  8
0
 10
-19.534133000000018
 20
210.78061
 30
0.0
  0
VERTEX
  5
13E2
  8
0
 10
-22.083648000000011
 20
210.14834300000001
 30
0.0
  0
VERTEX
  5
13E3
  8
0
 10
-23.962161999999999
 20
209.44880399999991
 30
0.0
  0
VERTEX
  5
13E4
  8
0
 10
-25.11259800000002
 20
208.703248
 30
0.0
  0
VERTEX
  5
13E5
  8
0
 10
-25.500000000000021
 20
207.93432899999999
 30
0.0
  0
SEQEND
  5
13E6
  8
0
  0
POLYLINE
  5
165
  8
0
 66
     1
 10
0.0
 20
0.0
 30
0.0
  0
VERTEX
  5
13E7
  8
0
 10
-25.500000000000021
 20
207.93432899999999
 30
0.0
  0
VERTEX
  5
13E8
  8
0
 10
-25.11259800000002
 20
207.16541000000001
 30
0.0
  0
VERTEX
  5
13E9
  8
0
 10
-23.962161999999999
 20
206.41985399999999
 30
0.0
  0
VERTEX
  5
13EA
  8
0
 10
-22.083648000000011
 20
205.720314
 30
0.0
  0
VERTEX
  5
13EB
  8
0
 10
-19.534133000000018
 20
205.08804699999999
 30
0.0
  0
VERTEX
  5
13EC
  8
0
 10
-16.391083999999999
 20
204.54226199999999
 30
0.0
  0
VERTEX
  5
13ED
  8
0
 10
-12.75000000000003
 20
204.09954300000001
 30
0.0
  0
VERTEX
  5
13EE
  8
0
 10
-8.7215140000000133
 20
203.77334300000001
 30
0.0
  0
VERTEX
  5
13EF
  8
0
 10
-4.4280290000000093
 20
203.5735720000001
 30
0.0
  0
VERTEX
  5
13F0
  8
0
 10
0.0
 20
203.50630000000001
 30
0.0
  0
VERTEX
  5
13F1
  8
0
 10
4.42802899999998
 20
203.5735720000001
 30
0.0
  0
VERTEX
  5
13F2
  8
0
 10
8.7215139999999831
 20
203.77334300000001
 30
0.0
  0
VERTEX
  5
13F3
  8
0
 10
12.75000000000003
 20
204.09954300000001
 30
0.0
  0
VERTEX
  5
13F4
  8
0
 10
16.391083999999999
 20
204.54226199999999
 30
0.0
  0
VERTEX
  5
13F5
  8
0
 10
19.534132999999962
 20
205.08804699999999
 30
0.0
  0
VERTEX
  5
13F6
  8
0
 10
22.08364799999995
 20
205.720314
 30
0.0
  0
VERTEX
  5
13F7
  8
0
 10
23.96216199999995
 20
206.41985399999999
 30
0.0
  0
VERTEX
  5
13F8
  8
0
 10
25.112597999999959
 20
207.16541000000001
 30
0.0
  0
VERTEX
  5
13F9
  8
0
 10
25.500000000000021
 20
207.93432899999999
 30
0.0
  0
SEQEND
  5
13FA
  8
0
  0
POLYLINE
  5
166
  8
0
 66
     1
 10
0.0
 20
0.0
 30
0.0
  0
VERTEX
  5
13FB
  8
0
 10
27.587658999999942
 20
221.36049700000009
 30
0.0
  0
VERTEX
  5
13FC
  8
0
 10
27.168539999999972
 20
221.77737500000001
 30
0.0
  0
VERTEX
  5
13FD
  8
0
 10
25.923919999999981
 20
222.18158700000001
 30
0.0
  0
VERTEX
  5
13FE
  8
0
 10
23.891613999999969
 20
222.5608499999999
 30
0.0
  0
VERTEX
  5
13FF
  8
0
 10
21.13337299999997
 20
222.90364199999991
 30
0.0
  0
VERTEX
  5
1400
  8
0
 10
17.733004999999959
 20
223.199545
 30
0.0
  0
VERTEX
  5
1401
  8
0
 10
13.793828999999979
 20
223.43956999999989
 30
0.0
  0
VERTEX
  5
1402
  8
0
 10
9.4355349999999873
 20
223.61642399999999
 30
0.0
  0
VERTEX
  5
1403
  8
0
 10
4.7905469999999752
 20
223.72473199999999
 30
0.0
  0
VERTEX
  5
1404
  8
0
 10
0.0
 20
223.76120399999999
 30
0.0
  0
VERTEX
  5
1405
  8
0
 10
-4.7905470000000028
 20
223.72473199999999
 30
0.0
  0
VERTEX
  5
1406
  8
0
 10
-9.4355350000000158
 20
223.61642399999999
 30
0.0
  0
VERTEX
  5
1407
  8
0
 10
-13.79383000000001
 20
223.43956999999989
 30
0.0
  0
VERTEX
  5
1408
  8
0
 10
-17.73300500000002
 20
223.199545
 30
0.0
  0
VERTEX
  5
1409
  8
0
 10
-21.133372999999999
 20
222.90364199999991
 30
0.0
  0
VERTEX
  5
140A
  8
0
 10
-23.891614000000029
 20
222.5608499999999
 30
0.0
  0
VERTEX
  5
140B
  8
0
 10
-25.923920000000031
 20
222.18158700000001
 30
0.0
  0
VERTEX
  5
140C
  8
0
 10
-27.168540000000029
 20
221.77737500000001
 30
0.0
  0
VERTEX
  5
140D
  8
0
 10
-27.587658999999999
 20
221.36049700000009
 30
0.0
  0
SEQEND
  5
140E
  8
0
  0
POLYLINE
  5
167
  8
0
 66
     1
 10
0.0
 20
0.0
 30
0.0
  0
VERTEX
  5
140F
  8
0
 10
27.587658999999942
 20
220.86049700000009
 30
0.0
  0
VERTEX
  5
1410
  8
0
 10
27.168539999999972
 20
221.27737500000001
 30
0.0
  0
VERTEX
  5
1411
  8
0
 10
25.923919999999981
 20
221.68158700000001
 30
0.0
  0
VERTEX
  5
1412
  8
0
 10
23.891613999999969
 20
222.0608499999999
 30
0.0
  0
VERTEX
  5
1413
  8
0
 10
21.13337299999997
 20
222.40364199999999
 30
0.0
  0
VERTEX
  5
1414
  8
0
 10
17.733004999999959
 20
222.699545
 30
0.0
  0
VERTEX
  5
1415
  8
0
 10
13.793828999999979
 20
222.93956999999989
 30
0.0
  0
VERTEX
  5
1416
  8
0
 10
9.4355349999999873
 20
223.11642399999999
 30
0.0
  0
VERTEX
  5
1417
  8
0
 10
4.7905469999999752
 20
223.22473199999999
 30
0.0
  0
VERTEX
  5
1418
  8
0
 10
0.0
 20
223.26120399999999
 30
0.0
  0
VERTEX
  5
1419
  8
0
 10
-4.7905470000000028
 20
223.22473199999999
 30
0.0
  0
VERTEX
  5
141A
  8
0
 10
-9.4355350000000158
 20
223.11642399999999
 30
0.0
  0
VERTEX
  5
141B
  8
0
 10
-13.79383000000001
 20
222.93956999999989
 30
0.0
  0
VERTEX
  5
141C
  8
0
 10
-17.73300500000002
 20
222.699545
 30
0.0
  0
VERTEX
  5
141D
  8
0
 10
-21.133372999999999
 20
222.40364199999999
 30
0.0
  0
VERTEX
  5
141E
  8
0
 10
-23.891614000000029
 20
222.0608499999999
 30
0.0
  0
VERTEX
  5
141F
  8
0
 10
-25.923920000000031
 20
221.68158700000001
 30
0.0
  0
VERTEX
  5
1420
  8
0
 10
-27.168540000000029
 20
221.27737500000001
 30
0.0
  0
VERTEX
  5
1421
  8
0
 10
-27.587658999999999
 20
220.86049700000009
 30
0.0
  0
SEQEND
  5
1422
  8
0
  0
POLYLINE
  5
168
  8
0
 66
     1
 10
0.0
 20
0.0
 30
0.0
 70
     1
  0
VERTEX
  5
1423
  8
0
 10
17.500000000000021
 20
207.93432899999999
 30
0.0
  0
VERTEX
  5
1424
  8
0
 10
17.23413599999995
 20
208.462018
 30
0.0
  0
VERTEX
  5
1425
  8
0
 10
16.444621000000009
 20
208.97367399999999
 30
0.0
  0
VERTEX
  5
1426
  8
0
 10
15.155445000000009
 20
209.45375000000001
 30
0.0
  0
VERTEX
  5
1427
  8
0
 10
13.40577799999997
 20
209.8876590000001
 30
0.0
  0
VERTEX
  5
1428
  8
0
 10
11.248782999999969
 20
210.26221699999991
 30
0.0
  0
VERTEX
  5
1429
  8
0
 10
8.75
 20
210.56604400000001
 30
0.0
  0
VERTEX
  5
142A
  8
0
 10
5.9853530000000026
 20
210.78990700000011
 30
0.0
  0
VERTEX
  5
142B
  8
0
 10
3.0388429999999849
 20
210.92700500000009
 30
0.0
  0
VERTEX
  5
142C
  8
0
 10
0.0
 20
210.97317200000001
 30
0.0
  0
VERTEX
  5
142D
  8
0
 10
-3.0388430000000142
 20
210.92700500000009
 30
0.0
  0
VERTEX
  5
142E
  8
0
 10
-5.9853530000000026
 20
210.78990700000011
 30
0.0
  0
VERTEX
  5
142F
  8
0
 10
-8.75
 20
210.56604400000001
 30
0.0
  0
VERTEX
  5
1430
  8
0
 10
-11.24878300000003
 20
210.26221699999991
 30
0.0
  0
VERTEX
  5
1431
  8
0
 10
-13.405778000000019
 20
209.8876590000001
 30
0.0
  0
VERTEX
  5
1432
  8
0
 10
-15.155445000000009
 20
209.45375000000001
 30
0.0
  0
VERTEX
  5
1433
  8
0
 10
-16.444621000000009
 20
208.97367399999999
 30
0.0
  0
VERTEX
  5
1434
  8
0
 10
-17.234135999999999
 20
208.462018
 30
0.0
  0
VERTEX
  5
1435
  8
0
 10
-17.500000000000021
 20
207.93432899999999
 30
0.0
  0
VERTEX
  5
1436
  8
0
 10
-17.234135999999999
 20
207.40663900000001
 30
0.0
  0
VERTEX
  5
1437
  8
0
 10
-16.444621000000009
 20
206.894983
 30
0.0
  0
VERTEX
  5
1438
  8
0
 10
-15.155445000000009
 20
206.414907
 30
0.0
  0
VERTEX
  5
1439
  8
0
 10
-13.405778000000019
 20
205.98099799999989
 30
0.0
  0
VERTEX
  5
143A
  8
0
 10
-11.24878300000003
 20
205.60643999999999
 30
0.0
  0
VERTEX
  5
143B
  8
0
 10
-8.75
 20
205.30261299999989
 30
0.0
  0
VERTEX
  5
143C
  8
0
 10
-5.9853530000000026
 20
205.07875000000001
 30
0.0
  0
VERTEX
  5
143D
  8
0
 10
-3.0388430000000142
 20
204.941652
 30
0.0
  0
VERTEX
  5
143E
  8
0
 10
0.0
 20
204.89548600000001
 30
0.0
  0
VERTEX
  5
143F
  8
0
 10
3.0388429999999849
 20
204.941652
 30
0.0
  0
VERTEX
  5
1440
  8
0
 10
5.9853530000000026
 20
205.07875000000001
 30
0.0
  0
VERTEX
  5
1441
  8
0
 10
8.75
 20
205.30261299999989
 30
0.0
  0
VERTEX
  5
1442
  8
0
 10
11.248782999999969
 20
205.60643999999999
 30
0.0
  0
VERTEX
  5
1443
  8
0
 10
13.40577799999997
 20
205.98099799999989
 30
0.0
  0
VERTEX
  5
1444
  8
0
 10
15.155445000000009
 20
206.414907
 30
0.0
  0
VERTEX
  5
1445
  8
0
 10
16.444621000000009
 20
206.894983
 30
0.0
  0
VERTEX
  5
1446
  8
0
 10
17.23413599999995
 20
207.40663900000001
 30
0.0
  0
SEQEND
  5
1447
  8
0
  0
LINE
  5
169
  8
0
 10
16.820466999999979
 20
198.948521
 30
0.0
 11
22.000000000000021
 21
198.948521
 31
0.0
  0
LINE
  5
16A
  8
0
 10
16.875423999999981
 20
195.80000699999999
 30
0.0
 11
21.373266999999959
 21
195.80000699999999
 31
0.0
  0
LINE
  5
16B
  8
0
 10
-16.721971000000021
 20
204.59131600000001
 30
0.0
 11
-19.043429000000032
 21
117.725088
 31
0.0
  0
LINE
  5
16C
  8
0
 10
-23.250000000000021
 20
194.49128999999999
 30
0.0
 11
-25.999944000000031
 21
151.60000700000001
 31
0.0
  0
LINE
  5
16D
  8
0
 10
-26.000000000000028
 20
150.49999700000009
 30
0.0
 11
-18.167535000000012
 21
150.49999700000009
 31
0.0
  0
LINE
  5
16E
  8
0
 10
-18.146155000000022
 20
151.30000699999999
 30
0.0
 11
-25.699944000000041
 21
151.30000699999999
 31
0.0
  0
LINE
  5
16F
  8
0
 10
-23.250000000000021
 20
151.30000699999999
 30
0.0
 11
-23.250000000000021
 21
150.49999700000009
 31
0.0
  0
LINE
  5
170
  8
0
 10
-25.699944000000041
 20
151.30000699999999
 30
0.0
 11
-25.999944000000031
 21
151.60000700000001
 31
0.0
  0
POLYLINE
  5
171
  8
0
 66
     1
 10
0.0
 20
0.0
 30
0.0
 70
     1
  0
VERTEX
  5
1448
  8
0
 10
6.25
 20
208.91913000000011
 30
0.0
  0
VERTEX
  5
1449
  8
0
 10
6.1550479999999927
 20
209.10758999999999
 30
0.0
  0
VERTEX
  5
144A
  8
0
 10
5.8730789999999891
 20
209.290323
 30
0.0
  0
VERTEX
  5
144B
  8
0
 10
5.4126589999999624
 20
209.4617770000001
 30
0.0
  0
VERTEX
  5
144C
  8
0
 10
4.7877780000000021
 20
209.61674400000001
 30
0.0
  0
VERTEX
  5
144D
  8
0
 10
4.0174229999999787
 20
209.75051400000001
 30
0.0
  0
VERTEX
  5
144E
  8
0
 10
3.125
 20
209.8590220000001
 30
0.0
  0
VERTEX
  5
144F
  8
0
 10
2.1376259999999832
 20
209.938973
 30
0.0
  0
VERTEX
  5
1450
  8
0
 10
1.0853009999999861
 20
209.98793599999999
 30
0.0
  0
VERTEX
  5
1451
  8
0
 10
0.0
 20
210.004424
 30
0.0
  0
VERTEX
  5
1452
  8
0
 10
-1.0853010000000149
 20
209.98793599999999
 30
0.0
  0
VERTEX
  5
1453
  8
0
 10
-2.1376260000000111
 20
209.938973
 30
0.0
  0
VERTEX
  5
1454
  8
0
 10
-3.125
 20
209.8590220000001
 30
0.0
  0
VERTEX
  5
1455
  8
0
 10
-4.0174230000000071
 20
209.75051400000001
 30
0.0
  0
VERTEX
  5
1456
  8
0
 10
-4.7877780000000021
 20
209.61674400000001
 30
0.0
  0
VERTEX
  5
1457
  8
0
 10
-5.4126590000000192
 20
209.4617770000001
 30
0.0
  0
VERTEX
  5
1458
  8
0
 10
-5.8730790000000184
 20
209.290323
 30
0.0
  0
VERTEX
  5
1459
  8
0
 10
-6.1550480000000221
 20
209.10758999999999
 30
0.0
  0
VERTEX
  5
145A
  8
0
 10
-6.25
 20
208.91913000000011
 30
0.0
  0
VERTEX
  5
145B
  8
0
 10
-6.1550480000000221
 20
208.730671
 30
0.0
  0
VERTEX
  5
145C
  8
0
 10
-5.8730790000000184
 20
208.54793799999999
 30
0.0
  0
VERTEX
  5
145D
  8
0
 10
-5.4126590000000192
 20
208.37648400000009
 30
0.0
  0
VERTEX
  5
145E
  8
0
 10
-4.7877780000000021
 20
208.22151699999989
 30
0.0
  0
VERTEX
  5
145F
  8
0
 10
-4.0174230000000071
 20
208.08774700000001
 30
0.0
  0
VERTEX
  5
1460
  8
0
 10
-3.125
 20
207.97923800000001
 30
0.0
  0
VERTEX
  5
1461
  8
0
 10
-2.1376260000000111
 20
207.8992879999999
 30
0.0
  0
VERTEX
  5
1462
  8
0
 10
-1.0853010000000149
 20
207.85032499999991
 30
0.0
  0
VERTEX
  5
1463
  8
0
 10
0.0
 20
207.8338369999999
 30
0.0
  0
VERTEX
  5
1464
  8
0
 10
1.0853009999999861
 20
207.85032499999991
 30
0.0
  0
VERTEX
  5
1465
  8
0
 10
2.1376259999999832
 20
207.8992879999999
 30
0.0
  0
VERTEX
  5
1466
  8
0
 10
3.125
 20
207.97923800000001
 30
0.0
  0
VERTEX
  5
1467
  8
0
 10
4.0174229999999787
 20
208.08774700000001
 30
0.0
  0
VERTEX
  5
1468
  8
0
 10
4.7877780000000021
 20
208.22151699999989
 30
0.0
  0
VERTEX
  5
1469
  8
0
 10
5.4126589999999624
 20
208.37648400000009
 30
0.0
  0
VERTEX
  5
146A
  8
0
 10
5.8730789999999891
 20
208.54793799999999
 30
0.0
  0
VERTEX
  5
146B
  8
0
 10
6.1550479999999927
 20
208.730671
 30
0.0
  0
SEQEND
  5
146C
  8
0
  0
POLYLINE
  5
172
  8
0
 66
     1
 10
0.0
 20
0.0
 30
0.0
 70
     1
  0
VERTEX
  5
146D
  8
0
 10
7.5
 20
208.91913000000011
 30
0.0
  0
VERTEX
  5
146E
  8
0
 10
7.386057999999962
 20
209.14528200000001
 30
0.0
  0
VERTEX
  5
146F
  8
0
 10
7.0476949999999761
 20
209.36456100000009
 30
0.0
  0
VERTEX
  5
1470
  8
0
 10
6.4951909999999771
 20
209.57030700000001
 30
0.0
  0
VERTEX
  5
1471
  8
0
 10
5.7453329999999587
 20
209.7562659999999
 30
0.0
  0
VERTEX
  5
1472
  8
0
 10
4.8209069999999761
 20
209.91678999999991
 30
0.0
  0
VERTEX
  5
1473
  8
0
 10
3.75
 20
210.04700100000011
 30
0.0
  0
VERTEX
  5
1474
  8
0
 10
2.5651509999999851
 20
210.14294100000001
 30
0.0
  0
VERTEX
  5
1475
  8
0
 10
1.3023609999999619
 20
210.201697
 30
0.0
  0
VERTEX
  5
1476
  8
0
 10
0.0
 20
210.22148300000001
 30
0.0
  0
VERTEX
  5
1477
  8
0
 10
-1.3023610000000181
 20
210.201697
 30
0.0
  0
VERTEX
  5
1478
  8
0
 10
-2.5651510000000139
 20
210.14294100000001
 30
0.0
  0
VERTEX
  5
1479
  8
0
 10
-3.75
 20
210.04700100000011
 30
0.0
  0
VERTEX
  5
147A
  8
0
 10
-4.8209070000000054
 20
209.91678999999991
 30
0.0
  0
VERTEX
  5
147B
  8
0
 10
-5.7453330000000156
 20
209.7562659999999
 30
0.0
  0
VERTEX
  5
147C
  8
0
 10
-6.495191000000033
 20
209.57030700000001
 30
0.0
  0
VERTEX
  5
147D
  8
0
 10
-7.047695000000032
 20
209.36456100000009
 30
0.0
  0
VERTEX
  5
147E
  8
0
 10
-7.3860580000000189
 20
209.14528200000001
 30
0.0
  0
VERTEX
  5
147F
  8
0
 10
-7.5
 20
208.91913000000011
 30
0.0
  0
VERTEX
  5
1480
  8
0
 10
-7.3860580000000189
 20
208.69297900000001
 30
0.0
  0
VERTEX
  5
1481
  8
0
 10
-7.047695000000032
 20
208.47370000000001
 30
0.0
  0
VERTEX
  5
1482
  8
0
 10
-6.495191000000033
 20
208.267954
 30
0.0
  0
VERTEX
  5
1483
  8
0
 10
-5.7453330000000156
 20
208.08199400000001
 30
0.0
  0
VERTEX
  5
1484
  8
0
 10
-4.8209070000000054
 20
207.921471
 30
0.0
  0
VERTEX
  5
1485
  8
0
 10
-3.75
 20
207.79125999999999
 30
0.0
  0
VERTEX
  5
1486
  8
0
 10
-2.5651510000000139
 20
207.69531900000001
 30
0.0
  0
VERTEX
  5
1487
  8
0
 10
-1.3023610000000181
 20
207.63656399999999
 30
0.0
  0
VERTEX
  5
1488
  8
0
 10
0.0
 20
207.61677800000001
 30
0.0
  0
VERTEX
  5
1489
  8
0
 10
1.3023609999999619
 20
207.63656399999999
 30
0.0
  0
VERTEX
  5
148A
  8
0
 10
2.5651509999999851
 20
207.69531900000001
 30
0.0
  0
VERTEX
  5
148B
  8
0
 10
3.75
 20
207.79125999999999
 30
0.0
  0
VERTEX
  5
148C
  8
0
 10
4.8209069999999761
 20
207.921471
 30
0.0
  0
VERTEX
  5
148D
  8
0
 10
5.7453329999999587
 20
208.08199400000001
 30
0.0
  0
VERTEX
  5
148E
  8
0
 10
6.4951909999999771
 20
208.267954
 30
0.0
  0
VERTEX
  5
148F
  8
0
 10
7.0476949999999761
 20
208.47370000000001
 30
0.0
  0
VERTEX
  5
1490
  8
0
 10
7.386057999999962
 20
208.69297900000001
 30
0.0
  0
SEQEND
  5
1491
  8
0
  0
POLYLINE
  5
173
  8
0
 66
     1
 10
0.0
 20
0.0
 30
0.0
  0
VERTEX
  5
1492
  8
0
 10
-16.21513700000002
 20
201.688399
 30
0.0
  0
VERTEX
  5
1493
  8
0
 10
-15.275084000000019
 20
199.39101299999999
 30
0.0
  0
VERTEX
  5
1494
  8
0
 10
-13.870904000000021
 20
197.26465200000001
 30
0.0
  0
VERTEX
  5
1495
  8
0
 10
-12.04526500000002
 20
195.3739239999999
 30
0.0
  0
VERTEX
  5
1496
  8
0
 10
-9.8536360000000212
 20
193.77627699999999
 30
0.0
  0
VERTEX
  5
1497
  8
0
 10
-7.3626090000000204
 20
192.52025699999999
 30
0.0
  0
VERTEX
  5
1498
  8
0
 10
-4.6478730000000041
 20
191.644026
 30
0.0
  0
VERTEX
  5
1499
  8
0
 10
-1.7919140000000191
 20
191.17420799999999
 30
0.0
  0
VERTEX
  5
149A
  8
0
 10
1.1184919999999741
 20
191.125078
 30
0.0
  0
VERTEX
  5
149B
  8
0
 10
3.99491199999997
 20
191.49812900000001
 30
0.0
  0
VERTEX
  5
149C
  8
0
 10
6.7499499999999841
 20
192.282026
 30
0.0
  0
VERTEX
  5
149D
  8
0
 10
9.2998929999999689
 20
193.4529510000001
 30
0.0
  0
VERTEX
  5
149E
  8
0
 10
11.56726399999993
 20
194.97532600000011
 30
0.0
  0
VERTEX
  5
149F
  8
0
 10
13.483169999999999
 20
196.80289400000001
 30
0.0
  0
VERTEX
  5
14A0
  8
0
 10
14.989395999999971
 20
198.88012499999999
 30
0.0
  0
VERTEX
  5
14A1
  8
0
 10
16.040176999999989
 20
201.1439050000001
 30
0.0
  0
VERTEX
  5
14A2
  8
0
 10
16.215136999999942
 20
201.688399
 30
0.0
  0
SEQEND
  5
14A3
  8
0
  0
LINE
  5
174
  8
0
 10
-16.820467000000029
 20
198.948521
 30
0.0
 11
-22.000000000000021
 21
198.948521
 31
0.0
  0
LINE
  5
175
  8
0
 10
-21.37326700000002
 20
195.80000699999999
 30
0.0
 11
-16.875423999999999
 21
195.80000699999999
 31
0.0
  0
LINE
  5
176
  8
0
 10
-25.500000000000021
 20
207.93432899999999
 30
0.0
 11
-27.545030000000018
 21
220.736829
 31
0.0
  0
ARC
  5
177
  8
0
 10
-21.37326700000002
 20
193.80000699999999
 30
0.0
 40
2.0
 50
90.0
 51
159.77903300000091
  0
ARC
  5
178
  8
0
 10
-22.000000000000021
 20
199.448521
 30
0.0
 40
0.5
 50
180.0
 51
270.0
  0
ARC
  5
179
  8
0
 10
-5.501326000000005
 20
197.100538
 30
0.0
 40
15.0
 50
172.9232459999983
 51
180.0
  0
LINE
  5
17A
  8
0
 10
-22.500000000000028
 20
199.448521
 30
0.0
 11
-22.500000000000028
 21
205.85054999999991
 31
0.0
  0
LINE
  5
17B
  8
0
 10
-20.501325999999999
 20
195.80000699999999
 30
0.0
 11
-20.501325999999999
 21
197.100538
 31
0.0
  0
LINE
  5
17C
  8
0
 10
-7.5
 20
208.91913000000011
 30
0.0
 11
-7.5
 21
210.39635799999991
 31
0.0
  0
POLYLINE
  5
17D
  8
0
 66
     1
 10
0.0
 20
0.0
 30
0.0
  0
VERTEX
  5
14A4
  8
0
 10
-7.2984100000000183
 20
210.69628000000009
 30
0.0
  0
VERTEX
  5
14A5
  8
0
 10
-7.4874560000000079
 20
210.47165100000001
 30
0.0
  0
VERTEX
  5
14A6
  8
0
 10
-7.5
 20
210.39635799999991
 30
0.0
  0
SEQEND
  5
14A7
  8
0
  0
POLYLINE
  5
17E
  8
0
 66
     1
 10
0.0
 20
0.0
 30
0.0
  0
VERTEX
  5
14A8
  8
0
 10
-4.3253430000000321
 20
181.62364600000001
 30
0.0
  0
VERTEX
  5
14A9
  8
0
 10
-4.1824220000000016
 20
181.60081199999999
 30
0.0
  0
VERTEX
  5
14AA
  8
0
 10
-4.0393760000000043
 20
181.57874899999999
 30
0.0
  0
VERTEX
  5
14AB
  8
0
 10
-3.8962070000000031
 20
181.55746000000011
 30
0.0
  0
VERTEX
  5
14AC
  8
0
 10
-3.7529200000000169
 20
181.5369419999999
 30
0.0
  0
VERTEX
  5
14AD
  8
0
 10
-3.6095190000000339
 20
181.5171970000001
 30
0.0
  0
VERTEX
  5
14AE
  8
0
 10
-3.4660100000000109
 20
181.49822499999999
 30
0.0
  0
VERTEX
  5
14AF
  8
0
 10
-3.3223950000000282
 20
181.48002600000001
 30
0.0
  0
VERTEX
  5
14B0
  8
0
 10
-3.1786790000000158
 20
181.46260000000001
 30
0.0
  0
VERTEX
  5
14B1
  8
0
 10
-3.0348660000000218
 20
181.44594699999999
 30
0.0
  0
VERTEX
  5
14B2
  8
0
 10
-2.8909620000000298
 20
181.43006700000001
 30
0.0
  0
VERTEX
  5
14B3
  8
0
 10
-2.7469690000000351
 20
181.41496100000001
 30
0.0
  0
VERTEX
  5
14B4
  8
0
 10
-2.6028920000000251
 20
181.4006279999999
 30
0.0
  0
VERTEX
  5
14B5
  8
0
 10
-2.458736000000016
 20
181.38706800000011
 30
0.0
  0
VERTEX
  5
14B6
  8
0
 10
-2.314504000000027
 20
181.37428199999991
 30
0.0
  0
VERTEX
  5
14B7
  8
0
 10
-2.17020100000002
 20
181.36227099999991
 30
0.0
  0
VERTEX
  5
14B8
  8
0
 10
-2.0258310000000099
 20
181.351033
 30
0.0
  0
VERTEX
  5
14B9
  8
0
 10
-1.881399000000016
 20
181.34056899999999
 30
0.0
  0
VERTEX
  5
14BA
  8
0
 10
-1.7369080000000281
 20
181.33088000000009
 30
0.0
  0
VERTEX
  5
14BB
  8
0
 10
-1.5923630000000339
 20
181.32196500000001
 30
0.0
  0
VERTEX
  5
14BC
  8
0
 10
-1.4477680000000239
 20
181.31382500000001
 30
0.0
  0
VERTEX
  5
14BD
  8
0
 10
-1.303127000000017
 20
181.3064590000001
 30
0.0
  0
VERTEX
  5
14BE
  8
0
 10
-1.1584450000000279
 20
181.299868
 30
0.0
  0
VERTEX
  5
14BF
  8
0
 10
-1.013726000000019
 20
181.29405199999999
 30
0.0
  0
VERTEX
  5
14C0
  8
0
 10
-0.868973000000011
 20
181.28900999999999
 30
0.0
  0
VERTEX
  5
14C1
  8
0
 10
-0.7241930000000423
 20
181.28474399999999
 30
0.0
  0
VERTEX
  5
14C2
  8
0
 10
-0.5793870000000254
 20
181.2812539999999
 30
0.0
  0
VERTEX
  5
14C3
  8
0
 10
-0.4345620000000281
 20
181.27853899999999
 30
0.0
  0
VERTEX
  5
14C4
  8
0
 10
-0.2897200000000168
 20
181.276599
 30
0.0
  0
VERTEX
  5
14C5
  8
0
 10
-0.1448670000000334
 20
181.27543499999999
 30
0.0
  0
VERTEX
  5
14C6
  8
0
 10
-0.0000070000000107
 20
181.27504700000009
 30
0.0
  0
VERTEX
  5
14C7
  8
0
 10
0.1448559999999759
 20
181.2754340000001
 30
0.0
  0
VERTEX
  5
14C8
  8
0
 10
0.2897109999999827
 20
181.27659800000001
 30
0.0
  0
VERTEX
  5
14C9
  8
0
 10
0.4345539999999915
 20
181.278537
 30
0.0
  0
VERTEX
  5
14CA
  8
0
 10
0.5793809999999838
 20
181.28125200000011
 30
0.0
  0
VERTEX
  5
14CB
  8
0
 10
0.7241879999999697
 20
181.28474299999999
 30
0.0
  0
VERTEX
  5
14CC
  8
0
 10
0.8689699999999903
 20
181.28900899999999
 30
0.0
  0
VERTEX
  5
14CD
  8
0
 10
1.0137239999999961
 20
181.29404999999991
 30
0.0
  0
VERTEX
  5
14CE
  8
0
 10
1.1584439999999741
 20
181.29986600000001
 30
0.0
  0
VERTEX
  5
14CF
  8
0
 10
1.3031279999999861
 20
181.30645699999999
 30
0.0
  0
VERTEX
  5
14D0
  8
0
 10
1.447768999999993
 20
181.31382400000001
 30
0.0
  0
VERTEX
  5
14D1
  8
0
 10
1.5923649999999721
 20
181.32196400000001
 30
0.0
  0
VERTEX
  5
14D2
  8
0
 10
1.736910999999963
 20
181.33088000000009
 30
0.0
  0
VERTEX
  5
14D3
  8
0
 10
1.88140199999998
 20
181.34056899999999
 30
0.0
  0
VERTEX
  5
14D4
  8
0
 10
2.0258349999999719
 20
181.351033
 30
0.0
  0
VERTEX
  5
14D5
  8
0
 10
2.1702059999999781
 20
181.36227099999991
 30
0.0
  0
VERTEX
  5
14D6
  8
0
 10
2.3145089999999859
 20
181.37428299999991
 30
0.0
  0
VERTEX
  5
14D7
  8
0
 10
2.4587409999999741
 20
181.38706899999991
 30
0.0
  0
VERTEX
  5
14D8
  8
0
 10
2.6028979999999811
 20
181.4006289999999
 30
0.0
  0
VERTEX
  5
14D9
  8
0
 10
2.746973999999994
 20
181.414962
 30
0.0
  0
VERTEX
  5
14DA
  8
0
 10
2.8909669999999892
 20
181.43006899999989
 30
0.0
  0
VERTEX
  5
14DB
  8
0
 10
3.0348719999999778
 20
181.44594900000001
 30
0.0
  0
VERTEX
  5
14DC
  8
0
 10
3.1786839999999752
 20
181.462603
 30
0.0
  0
VERTEX
  5
14DD
  8
0
 10
3.3223989999999901
 20
181.480029
 30
0.0
  0
VERTEX
  5
14DE
  8
0
 10
3.466013999999972
 20
181.49822800000001
 30
0.0
  0
VERTEX
  5
14DF
  8
0
 10
3.6095229999999949
 20
181.5172
 30
0.0
  0
VERTEX
  5
14E0
  8
0
 10
3.752921999999983
 20
181.536945
 30
0.0
  0
VERTEX
  5
14E1
  8
0
 10
3.896207999999973
 20
181.5574619999999
 30
0.0
  0
VERTEX
  5
14E2
  8
0
 10
4.0393770000000009
 20
181.5787510000001
 30
0.0
  0
VERTEX
  5
14E3
  8
0
 10
4.1824219999999741
 20
181.60081299999999
 30
0.0
  0
VERTEX
  5
14E4
  8
0
 10
4.3253419999999769
 20
181.62364700000009
 30
0.0
  0
SEQEND
  5
14E5
  8
0
  0
POLYLINE
  5
17F
  8
0
 66
     1
 10
0.0
 20
0.0
 30
0.0
  0
VERTEX
  5
14E6
  8
0
 10
-3.5000020000000229
 20
184.75385700000001
 30
0.0
  0
VERTEX
  5
14E7
  8
0
 10
-3.3842970000000032
 20
184.73691699999989
 30
0.0
  0
VERTEX
  5
14E8
  8
0
 10
-3.2684930000000341
 20
184.72054800000001
 30
0.0
  0
VERTEX
  5
14E9
  8
0
 10
-3.1525950000000189
 20
184.70475200000001
 30
0.0
  0
VERTEX
  5
14EA
  8
0
 10
-3.0366050000000082
 20
184.68952700000011
 30
0.0
  0
VERTEX
  5
14EB
  8
0
 10
-2.9205260000000228
 20
184.67487499999999
 30
0.0
  0
VERTEX
  5
14EC
  8
0
 10
-2.804363000000023
 20
184.66079400000001
 30
0.0
  0
VERTEX
  5
14ED
  8
0
 10
-2.6881190000000279
 20
184.64728700000001
 30
0.0
  0
VERTEX
  5
14EE
  8
0
 10
-2.5717970000000032
 20
184.63435200000001
 30
0.0
  0
VERTEX
  5
14EF
  8
0
 10
-2.4554010000000228
 20
184.6219890000001
 30
0.0
  0
VERTEX
  5
14F0
  8
0
 10
-2.3389340000000232
 20
184.61019999999991
 30
0.0
  0
VERTEX
  5
14F1
  8
0
 10
-2.2223990000000242
 20
184.59898400000009
 30
0.0
  0
VERTEX
  5
14F2
  8
0
 10
-2.1058010000000129
 20
184.58834200000001
 30
0.0
  0
VERTEX
  5
14F3
  8
0
 10
-1.9891410000000169
 20
184.578273
 30
0.0
  0
VERTEX
  5
14F4
  8
0
 10
-1.8724250000000211
 20
184.56877800000001
 30
0.0
  0
VERTEX
  5
14F5
  8
0
 10
-1.755655000000018
 20
184.55985699999999
 30
0.0
  0
VERTEX
  5
14F6
  8
0
 10
-1.638835000000028
 20
184.55151000000009
 30
0.0
  0
VERTEX
  5
14F7
  8
0
 10
-1.5219680000000151
 20
184.54373699999991
 30
0.0
  0
VERTEX
  5
14F8
  8
0
 10
-1.4050570000000271
 20
184.536539
 30
0.0
  0
VERTEX
  5
14F9
  8
0
 10
-1.2881070000000241
 20
184.52991599999999
 30
0.0
  0
VERTEX
  5
14FA
  8
0
 10
-1.1711200000000299
 20
184.52386800000011
 30
0.0
  0
VERTEX
  5
14FB
  8
0
 10
-1.0541000000000049
 20
184.518394
 30
0.0
  0
VERTEX
  5
14FC
  8
0
 10
-0.9370499999999992
 20
184.513496
 30
0.0
  0
VERTEX
  5
14FD
  8
0
 10
-0.8199740000000019
 20
184.509174
 30
0.0
  0
VERTEX
  5
14FE
  8
0
 10
-0.7028760000000034
 20
184.505427
 30
0.0
  0
VERTEX
  5
14FF
  8
0
 10
-0.5857580000000269
 20
184.5022560000001
 30
0.0
  0
VERTEX
  5
1500
  8
0
 10
-0.4686240000000055
 20
184.499662
 30
0.0
  0
VERTEX
  5
1501
  8
0
 10
-0.3514780000000144
 20
184.49764300000001
 30
0.0
  0
VERTEX
  5
1502
  8
0
 10
-0.2343230000000176
 20
184.49620100000001
 30
0.0
  0
VERTEX
  5
1503
  8
0
 10
-0.1171630000000334
 20
184.49533500000001
 30
0.0
  0
VERTEX
  5
1504
  8
0
 10
0.0
 20
184.49504700000011
 30
0.0
  0
VERTEX
  5
1505
  8
0
 10
0.1171619999999791
 20
184.49533500000001
 30
0.0
  0
VERTEX
  5
1506
  8
0
 10
0.2343219999999917
 20
184.49619999999999
 30
0.0
  0
VERTEX
  5
1507
  8
0
 10
0.351475999999991
 20
184.49764200000001
 30
0.0
  0
VERTEX
  5
1508
  8
0
 10
0.4686209999999847
 20
184.49966000000001
 30
0.0
  0
VERTEX
  5
1509
  8
0
 10
0.5857539999999802
 20
184.5022550000001
 30
0.0
  0
VERTEX
  5
150A
  8
0
 10
0.7028719999999851
 20
184.505426
 30
0.0
  0
VERTEX
  5
150B
  8
0
 10
0.8199699999999836
 20
184.50917200000001
 30
0.0
  0
VERTEX
  5
150C
  8
0
 10
0.9370449999999834
 20
184.51349500000001
 30
0.0
  0
VERTEX
  5
150D
  8
0
 10
1.0540939999999921
 20
184.518393
 30
0.0
  0
VERTEX
  5
150E
  8
0
 10
1.171113999999988
 20
184.52386599999991
 30
0.0
  0
VERTEX
  5
150F
  8
0
 10
1.2880999999999849
 20
184.52991399999999
 30
0.0
  0
VERTEX
  5
1510
  8
0
 10
1.4050499999999879
 20
184.53653799999989
 30
0.0
  0
VERTEX
  5
1511
  8
0
 10
1.521959999999978
 20
184.543736
 30
0.0
  0
VERTEX
  5
1512
  8
0
 10
1.638826999999992
 20
184.5515090000001
 30
0.0
  0
VERTEX
  5
1513
  8
0
 10
1.7556469999999811
 20
184.559856
 30
0.0
  0
VERTEX
  5
1514
  8
0
 10
1.872416999999984
 20
184.56877700000001
 30
0.0
  0
VERTEX
  5
1515
  8
0
 10
1.989133999999978
 20
184.578273
 30
0.0
  0
VERTEX
  5
1516
  8
0
 10
2.1057929999999772
 20
184.58834200000001
 30
0.0
  0
VERTEX
  5
1517
  8
0
 10
2.2223909999999871
 20
184.598985
 30
0.0
  0
VERTEX
  5
1518
  8
0
 10
2.3389259999999861
 20
184.61020099999999
 30
0.0
  0
VERTEX
  5
1519
  8
0
 10
2.4553929999999862
 20
184.6219900000001
 30
0.0
  0
VERTEX
  5
151A
  8
0
 10
2.571789999999992
 20
184.63435200000001
 30
0.0
  0
VERTEX
  5
151B
  8
0
 10
2.6881119999999892
 20
184.647288
 30
0.0
  0
VERTEX
  5
151C
  8
0
 10
2.8043559999999839
 20
184.660796
 30
0.0
  0
VERTEX
  5
151D
  8
0
 10
2.920519999999982
 20
184.67487600000001
 30
0.0
  0
VERTEX
  5
151E
  8
0
 10
3.036597999999997
 20
184.68952899999991
 30
0.0
  0
VERTEX
  5
151F
  8
0
 10
3.1525889999999772
 20
184.7047529999999
 30
0.0
  0
VERTEX
  5
1520
  8
0
 10
3.2684879999999898
 20
184.72055
 30
0.0
  0
VERTEX
  5
1521
  8
0
 10
3.384291999999987
 20
184.736918
 30
0.0
  0
VERTEX
  5
1522
  8
0
 10
3.4999979999999762
 20
184.75385800000001
 30
0.0
  0
SEQEND
  5
1523
  8
0
  0
POLYLINE
  5
180
  8
0
 66
     1
 10
0.0
 20
0.0
 30
0.0
  0
VERTEX
  5
1524
  8
0
 10
-3.8827380000000171
 20
183.73012299999999
 30
0.0
  0
VERTEX
  5
1525
  8
0
 10
-4.0296210000000201
 20
183.76453000000001
 30
0.0
  0
VERTEX
  5
1526
  8
0
 10
-4.179793000000017
 20
183.77080599999999
 30
0.0
  0
VERTEX
  5
1527
  8
0
 10
-4.328690000000023
 20
183.748762
 30
0.0
  0
VERTEX
  5
1528
  8
0
 10
-4.4717880000000321
 20
183.69906599999999
 30
0.0
  0
VERTEX
  5
1529
  8
0
 10
-4.60474000000002
 20
183.62322800000001
 30
0.0
  0
VERTEX
  5
152A
  8
0
 10
-4.7235060000000137
 20
183.52355399999999
 30
0.0
  0
VERTEX
  5
152B
  8
0
 10
-4.8244760000000042
 20
183.4030709999999
 30
0.0
  0
VERTEX
  5
152C
  8
0
 10
-4.9045840000000283
 20
183.26544000000001
 30
0.0
  0
VERTEX
  5
152D
  8
0
 10
-4.9613950000000377
 20
183.11484300000001
 30
0.0
  0
VERTEX
  5
152E
  8
0
 10
-4.9931820000000178
 20
182.95585700000001
 30
0.0
  0
VERTEX
  5
152F
  8
0
 10
-5.0000020000000234
 20
182.83871199999999
 30
0.0
  0
SEQEND
  5
1530
  8
0
  0
LINE
  5
181
  8
0
 10
-3.5000020000000229
 20
184.75385700000001
 30
0.0
 11
-3.5000020000000229
 21
183.672571
 31
0.0
  0
POLYLINE
  5
182
  8
0
 66
     1
 10
0.0
 20
0.0
 30
0.0
  0
VERTEX
  5
1531
  8
0
 10
-3.8827380000000171
 20
183.73012299999999
 30
0.0
  0
VERTEX
  5
1532
  8
0
 10
-3.8699970000000121
 20
183.72810799999999
 30
0.0
  0
VERTEX
  5
1533
  8
0
 10
-3.8572550000000092
 20
183.72609899999989
 30
0.0
  0
VERTEX
  5
1534
  8
0
 10
-3.8445120000000079
 20
183.724098
 30
0.0
  0
VERTEX
  5
1535
  8
0
 10
-3.831767000000013
 20
183.722103
 30
0.0
  0
VERTEX
  5
1536
  8
0
 10
-3.8190210000000202
 20
183.720114
 30
0.0
  0
VERTEX
  5
1537
  8
0
 10
-3.806274000000001
 20
183.71813299999991
 30
0.0
  0
VERTEX
  5
1538
  8
0
 10
-3.7935260000000142
 20
183.71615800000001
 30
0.0
  0
VERTEX
  5
1539
  8
0
 10
-3.7807770000000001
 20
183.71419
 30
0.0
  0
VERTEX
  5
153A
  8
0
 10
-3.7680260000000199
 20
183.7122279999999
 30
0.0
  0
VERTEX
  5
153B
  8
0
 10
-3.7552740000000142
 20
183.710273
 30
0.0
  0
VERTEX
  5
153C
  8
0
 10
-3.7425220000000081
 20
183.708325
 30
0.0
  0
VERTEX
  5
153D
  8
0
 10
-3.7297680000000351
 20
183.70638299999999
 30
0.0
  0
VERTEX
  5
153E
  8
0
 10
-3.7170130000000361
 20
183.70444800000001
 30
0.0
  0
VERTEX
  5
153F
  8
0
 10
-3.7042560000000151
 20
183.702519
 30
0.0
  0
VERTEX
  5
1540
  8
0
 10
-3.6914990000000212
 20
183.70059800000001
 30
0.0
  0
VERTEX
  5
1541
  8
0
 10
-3.6787400000000332
 20
183.69868299999999
 30
0.0
  0
VERTEX
  5
1542
  8
0
 10
-3.665980000000018
 20
183.696774
 30
0.0
  0
VERTEX
  5
1543
  8
0
 10
-3.6532200000000321
 20
183.694873
 30
0.0
  0
VERTEX
  5
1544
  8
0
 10
-3.6404580000000228
 20
183.69297800000001
 30
0.0
  0
VERTEX
  5
1545
  8
0
 10
-3.6276950000000161
 20
183.69108900000001
 30
0.0
  0
VERTEX
  5
1546
  8
0
 10
-3.6149300000000149
 20
183.68920700000001
 30
0.0
  0
VERTEX
  5
1547
  8
0
 10
-3.6021650000000132
 20
183.687332
 30
0.0
  0
VERTEX
  5
1548
  8
0
 10
-3.5893980000000161
 20
183.685464
 30
0.0
  0
VERTEX
  5
1549
  8
0
 10
-3.5766310000000199
 20
183.68360200000001
 30
0.0
  0
VERTEX
  5
154A
  8
0
 10
-3.5638620000000278
 20
183.681747
 30
0.0
  0
VERTEX
  5
154B
  8
0
 10
-3.5510920000000392
 20
183.67989899999989
 30
0.0
  0
VERTEX
  5
154C
  8
0
 10
-3.5383209999999958
 20
183.678057
 30
0.0
  0
VERTEX
  5
154D
  8
0
 10
-3.5255490000000118
 20
183.676222
 30
0.0
  0
VERTEX
  5
154E
  8
0
 10
-3.5127760000000019
 20
183.67439300000009
 30
0.0
  0
VERTEX
  5
154F
  8
0
 10
-3.5000020000000229
 20
183.672571
 30
0.0
  0
SEQEND
  5
1550
  8
0
  0
POLYLINE
  5
183
  8
0
 66
     1
 10
0.0
 20
0.0
 30
0.0
  0
VERTEX
  5
1551
  8
0
 10
-5.0000020000000234
 20
182.83871199999999
 30
0.0
  0
VERTEX
  5
1552
  8
0
 10
-4.9869040000000089
 20
182.622545
 30
0.0
  0
VERTEX
  5
1553
  8
0
 10
-4.9480080000000148
 20
182.41294500000001
 30
0.0
  0
VERTEX
  5
1554
  8
0
 10
-4.8844950000000429
 20
182.21628200000001
 30
0.0
  0
VERTEX
  5
1555
  8
0
 10
-4.798296000000021
 20
182.03853100000001
 30
0.0
  0
VERTEX
  5
1556
  8
0
 10
-4.6920300000000159
 20
181.88509400000001
 30
0.0
  0
VERTEX
  5
1557
  8
0
 10
-4.5689250000000072
 20
181.7606319999999
 30
0.0
  0
VERTEX
  5
1558
  8
0
 10
-4.4327220000000116
 20
181.668926
 30
0.0
  0
VERTEX
  5
1559
  8
0
 10
-4.287559000000015
 20
181.612764
 30
0.0
  0
VERTEX
  5
155A
  8
0
 10
-4.137847000000022
 20
181.593852
 30
0.0
  0
SEQEND
  5
155B
  8
0
  0
POLYLINE
  5
184
  8
0
 66
     1
 10
0.0
 20
0.0
 30
0.0
  0
VERTEX
  5
155C
  8
0
 10
4.9999979999999757
 20
182.83871199999999
 30
0.0
  0
VERTEX
  5
155D
  8
0
 10
4.9868999999999906
 20
183.00076100000001
 30
0.0
  0
VERTEX
  5
155E
  8
0
 10
4.948002999999999
 20
183.15788499999999
 30
0.0
  0
VERTEX
  5
155F
  8
0
 10
4.8844909999999677
 20
183.30531199999999
 30
0.0
  0
VERTEX
  5
1560
  8
0
 10
4.7982919999999751
 20
183.43856099999999
 30
0.0
  0
VERTEX
  5
1561
  8
0
 10
4.692025000000001
 20
183.55358400000009
 30
0.0
  0
VERTEX
  5
1562
  8
0
 10
4.5689199999999914
 20
183.64688599999999
 30
0.0
  0
VERTEX
  5
1563
  8
0
 10
4.4327169999999683
 20
183.715633
 30
0.0
  0
VERTEX
  5
1564
  8
0
 10
4.2875549999999691
 20
183.75773400000011
 30
0.0
  0
VERTEX
  5
1565
  8
0
 10
4.1378429999999753
 20
183.77191099999999
 30
0.0
  0
VERTEX
  5
1566
  8
0
 10
3.988130999999981
 20
183.75773400000011
 30
0.0
  0
VERTEX
  5
1567
  8
0
 10
3.8827339999999699
 20
183.73012299999999
 30
0.0
  0
SEQEND
  5
1568
  8
0
  0
LINE
  5
185
  8
0
 10
3.4999979999999762
 20
184.75385800000001
 30
0.0
 11
3.4999979999999762
 21
183.672573
 31
0.0
  0
POLYLINE
  5
186
  8
0
 66
     1
 10
0.0
 20
0.0
 30
0.0
  0
VERTEX
  5
1569
  8
0
 10
3.8827339999999699
 20
183.73012299999999
 30
0.0
  0
VERTEX
  5
156A
  8
0
 10
3.8699929999999929
 20
183.72810799999999
 30
0.0
  0
VERTEX
  5
156B
  8
0
 10
3.85725099999999
 20
183.72609899999989
 30
0.0
  0
VERTEX
  5
156C
  8
0
 10
3.8445069999999641
 20
183.724098
 30
0.0
  0
VERTEX
  5
156D
  8
0
 10
3.8317629999999658
 20
183.722103
 30
0.0
  0
VERTEX
  5
156E
  8
0
 10
3.819016999999973
 20
183.720114
 30
0.0
  0
VERTEX
  5
156F
  8
0
 10
3.8062699999999832
 20
183.71813299999991
 30
0.0
  0
VERTEX
  5
1570
  8
0
 10
3.793521999999995
 20
183.71615800000001
 30
0.0
  0
VERTEX
  5
1571
  8
0
 10
3.7807719999999838
 20
183.71419
 30
0.0
  0
VERTEX
  5
1572
  8
0
 10
3.7680219999999731
 20
183.7122279999999
 30
0.0
  0
VERTEX
  5
1573
  8
0
 10
3.755269999999995
 20
183.710273
 30
0.0
  0
VERTEX
  5
1574
  8
0
 10
3.7425169999999919
 20
183.708325
 30
0.0
  0
VERTEX
  5
1575
  8
0
 10
3.7297629999999908
 20
183.70638299999999
 30
0.0
  0
VERTEX
  5
1576
  8
0
 10
3.7170079999999639
 20
183.70444800000001
 30
0.0
  0
VERTEX
  5
1577
  8
0
 10
3.7042519999999959
 20
183.702519
 30
0.0
  0
VERTEX
  5
1578
  8
0
 10
3.691493999999977
 20
183.70059800000001
 30
0.0
  0
VERTEX
  5
1579
  8
0
 10
3.678735999999986
 20
183.69868299999999
 30
0.0
  0
VERTEX
  5
157A
  8
0
 10
3.6659760000000001
 20
183.696774
 30
0.0
  0
VERTEX
  5
157B
  8
0
 10
3.6532149999999879
 20
183.694873
 30
0.0
  0
VERTEX
  5
157C
  8
0
 10
3.6404529999999791
 20
183.69297800000001
 30
0.0
  0
VERTEX
  5
157D
  8
0
 10
3.6276899999999719
 20
183.69108900000001
 30
0.0
  0
VERTEX
  5
157E
  8
0
 10
3.6149259999999961
 20
183.68920700000001
 30
0.0
  0
VERTEX
  5
157F
  8
0
 10
3.602160999999966
 20
183.687332
 30
0.0
  0
VERTEX
  5
1580
  8
0
 10
3.5893939999999702
 20
183.685464
 30
0.0
  0
VERTEX
  5
1581
  8
0
 10
3.5766259999999761
 20
183.68360200000001
 30
0.0
  0
VERTEX
  5
1582
  8
0
 10
3.5638579999999811
 20
183.681747
 30
0.0
  0
VERTEX
  5
1583
  8
0
 10
3.5510879999999641
 20
183.67989899999989
 30
0.0
  0
VERTEX
  5
1584
  8
0
 10
3.5383169999999771
 20
183.678057
 30
0.0
  0
VERTEX
  5
1585
  8
0
 10
3.525544999999993
 20
183.676222
 30
0.0
  0
VERTEX
  5
1586
  8
0
 10
3.512771999999984
 20
183.67439300000009
 30
0.0
  0
VERTEX
  5
1587
  8
0
 10
3.4999979999999762
 20
183.672571
 30
0.0
  0
SEQEND
  5
1588
  8
0
  0
POLYLINE
  5
187
  8
0
 66
     1
 10
0.0
 20
0.0
 30
0.0
  0
VERTEX
  5
1589
  8
0
 10
4.1378429999999753
 20
181.593852
 30
0.0
  0
VERTEX
  5
158A
  8
0
 10
4.2875549999999691
 20
181.612764
 30
0.0
  0
VERTEX
  5
158B
  8
0
 10
4.4327169999999683
 20
181.668926
 30
0.0
  0
VERTEX
  5
158C
  8
0
 10
4.5689199999999914
 20
181.7606319999999
 30
0.0
  0
VERTEX
  5
158D
  8
0
 10
4.692025000000001
 20
181.88509400000001
 30
0.0
  0
VERTEX
  5
158E
  8
0
 10
4.7982919999999751
 20
182.03853100000001
 30
0.0
  0
VERTEX
  5
158F
  8
0
 10
4.8844909999999677
 20
182.21628200000001
 30
0.0
  0
VERTEX
  5
1590
  8
0
 10
4.948002999999999
 20
182.41294500000001
 30
0.0
  0
VERTEX
  5
1591
  8
0
 10
4.9868999999999906
 20
182.622545
 30
0.0
  0
VERTEX
  5
1592
  8
0
 10
4.9999979999999757
 20
182.83871199999999
 30
0.0
  0
SEQEND
  5
1593
  8
0
  0
LINE
  5
188
  8
0
 10
7.5
 20
208.91913000000011
 30
0.0
 11
7.5
 21
210.39635799999991
 31
0.0
  0
POLYLINE
  5
189
  8
0
 66
     1
 10
0.0
 20
0.0
 30
0.0
  0
VERTEX
  5
1594
  8
0
 10
7.5
 20
210.39635799999991
 30
0.0
  0
VERTEX
  5
1595
  8
0
 10
7.386057999999962
 20
210.62250900000001
 30
0.0
  0
VERTEX
  5
1596
  8
0
 10
7.2984099999999614
 20
210.69628000000009
 30
0.0
  0
SEQEND
  5
1597
  8
0
  0
LINE
  5
18A
  8
0
 10
23.250000000000021
 20
194.49128999999999
 30
0.0
 11
25.999943999999939
 21
151.60000700000001
 31
0.0
  0
LINE
  5
18B
  8
0
 10
18.167534999999951
 20
150.49999700000009
 30
0.0
 11
26.000000000000028
 21
150.49999700000009
 31
0.0
  0
LINE
  5
18C
  8
0
 10
18.146154999999929
 20
151.30000699999999
 30
0.0
 11
25.699943999999981
 21
151.30000699999999
 31
0.0
  0
LINE
  5
18D
  8
0
 10
23.250000000000021
 20
151.30000699999999
 30
0.0
 11
23.250000000000021
 21
150.49999700000009
 31
0.0
  0
LINE
  5
18E
  8
0
 10
25.699943999999981
 20
151.30000699999999
 30
0.0
 11
25.999943999999939
 21
151.60000700000001
 31
0.0
  0
LINE
  5
18F
  8
0
 10
25.500000000000021
 20
207.93432899999999
 30
0.0
 11
27.545029999999969
 21
220.736829
 31
0.0
  0
ARC
  5
190
  8
0
 10
21.373266999999959
 20
193.80000699999999
 30
0.0
 40
2.0
 50
20.220966999999039
 51
90.0
  0
ARC
  5
191
  8
0
 10
22.000000000000021
 20
199.448521
 30
0.0
 40
0.5
 50
270.0
 51
0.0
  0
LINE
  5
192
  8
0
 10
22.500000000000028
 20
199.448521
 30
0.0
 11
22.500000000000028
 21
205.85054999999991
 31
0.0
  0
ARC
  5
193
  8
0
 10
5.5013259999999766
 20
197.100538
 30
0.0
 40
15.0
 50
0.0
 51
7.0767540000016398
  0
LINE
  5
194
  8
0
 10
20.50132599999997
 20
195.80000699999999
 30
0.0
 11
20.50132599999997
 21
197.100538
 31
0.0
  0
ARC
  5
195
  8
0
 10
73.974857999999955
 20
30.5
 30
0.0
 40
3.0
 50
270.0
 51
345.26279600000078
  0
POLYLINE
  5
196
  8
0
 66
     1
 10
0.0
 20
0.0
 30
0.0
  0
VERTEX
  5
1598
  8
0
 10
71.849999999999994
 20
65.112838000000011
 30
0.0
  0
VERTEX
  5
1599
  8
0
 10
71.909777999999974
 20
65.109434000000078
 30
0.0
  0
VERTEX
  5
159A
  8
0
 10
71.969549999999984
 20
65.105977000000053
 30
0.0
  0
VERTEX
  5
159B
  8
0
 10
72.029310999999979
 20
65.102410000000063
 30
0.0
  0
VERTEX
  5
159C
  8
0
 10
72.089054000000004
 20
65.098680000000058
 30
0.0
  0
VERTEX
  5
159D
  8
0
 10
72.148775000000029
 20
65.09473400000013
 30
0.0
  0
VERTEX
  5
159E
  8
0
 10
72.208466000000016
 20
65.09051599999998
 30
0.0
  0
VERTEX
  5
159F
  8
0
 10
72.268123999999972
 20
65.085972000000083
 30
0.0
  0
VERTEX
  5
15A0
  8
0
 10
72.327740999999975
 20
65.08104800000001
 30
0.0
  0
VERTEX
  5
15A1
  8
0
 10
72.38731199999998
 20
65.075689000000125
 30
0.0
  0
VERTEX
  5
15A2
  8
0
 10
72.446831000000003
 20
65.069841999999994
 30
0.0
  0
VERTEX
  5
15A3
  8
0
 10
72.506292999999943
 20
65.063452999999981
 30
0.0
  0
VERTEX
  5
15A4
  8
0
 10
72.565691999999984
 20
65.056466
 30
0.0
  0
VERTEX
  5
15A5
  8
0
 10
72.625021999999973
 20
65.048827000000074
 30
0.0
  0
VERTEX
  5
15A6
  8
0
 10
72.68427699999998
 20
65.040482999999995
 30
0.0
  0
VERTEX
  5
15A7
  8
0
 10
72.743451999999962
 20
65.031379000000015
 30
0.0
  0
VERTEX
  5
15A8
  8
0
 10
72.802539999999937
 20
65.021460000000047
 30
0.0
  0
VERTEX
  5
15A9
  8
0
 10
72.861537000000027
 20
65.010673000000111
 30
0.0
  0
VERTEX
  5
15AA
  8
0
 10
72.920435999999967
 20
64.998963000000003
 30
0.0
  0
VERTEX
  5
15AB
  8
0
 10
72.979231999999939
 20
64.986276000000089
 30
0.0
  0
VERTEX
  5
15AC
  8
0
 10
73.037919000000016
 20
64.972557000000052
 30
0.0
  0
VERTEX
  5
15AD
  8
0
 10
73.096489999999989
 20
64.957753000000025
 30
0.0
  0
VERTEX
  5
15AE
  8
0
 10
73.154941999999977
 20
64.941808000000037
 30
0.0
  0
VERTEX
  5
15AF
  8
0
 10
73.213267000000002
 20
64.924669999999992
 30
0.0
  0
VERTEX
  5
15B0
  8
0
 10
73.271459999999962
 20
64.906282000000033
 30
0.0
  0
VERTEX
  5
15B1
  8
0
 10
73.329514999999986
 20
64.886591999999951
 30
0.0
  0
VERTEX
  5
15B2
  8
0
 10
73.387425999999977
 20
64.865544999999997
 30
0.0
  0
VERTEX
  5
15B3
  8
0
 10
73.445187999999945
 20
64.843086000000085
 30
0.0
  0
VERTEX
  5
15B4
  8
0
 10
73.502796000000018
 20
64.819161000000008
 30
0.0
  0
VERTEX
  5
15B5
  8
0
 10
73.560241999999988
 20
64.793717000000015
 30
0.0
  0
VERTEX
  5
15B6
  8
0
 10
73.617521999999923
 20
64.766698000000019
 30
0.0
  0
VERTEX
  5
15B7
  8
0
 10
73.67462500000002
 20
64.738068000000112
 30
0.0
  0
VERTEX
  5
15B8
  8
0
 10
73.731521999999956
 20
64.707861000000094
 30
0.0
  0
VERTEX
  5
15B9
  8
0
 10
73.788177999999931
 20
64.676127000000065
 30
0.0
  0
VERTEX
  5
15BA
  8
0
 10
73.844558999999975
 20
64.642920000000004
 30
0.0
  0
VERTEX
  5
15BB
  8
0
 10
73.900632000000002
 20
64.608289000000013
 30
0.0
  0
VERTEX
  5
15BC
  8
0
 10
73.956362999999982
 20
64.572286000000076
 30
0.0
  0
VERTEX
  5
15BD
  8
0
 10
74.011716000000007
 20
64.534962999999934
 30
0.0
  0
VERTEX
  5
15BE
  8
0
 10
74.066658999999987
 20
64.496370999999954
 30
0.0
  0
VERTEX
  5
15BF
  8
0
 10
74.121156999999954
 20
64.456560000000081
 30
0.0
  0
VERTEX
  5
15C0
  8
0
 10
74.175175999999993
 20
64.415584000000081
 30
0.0
  0
VERTEX
  5
15C1
  8
0
 10
74.228681999999964
 20
64.373492000000056
 30
0.0
  0
VERTEX
  5
15C2
  8
0
 10
74.281640999999993
 20
64.330336999999986
 30
0.0
  0
VERTEX
  5
15C3
  8
0
 10
74.334017999999929
 20
64.286170000000084
 30
0.0
  0
VERTEX
  5
15C4
  8
0
 10
74.38578099999998
 20
64.241040999999996
 30
0.0
  0
VERTEX
  5
15C5
  8
0
 10
74.436893999999967
 20
64.195003000000042
 30
0.0
  0
VERTEX
  5
15C6
  8
0
 10
74.487323999999973
 20
64.148107000000095
 30
0.0
  0
VERTEX
  5
15C7
  8
0
 10
74.537035999999972
 20
64.100404000000026
 30
0.0
  0
VERTEX
  5
15C8
  8
0
 10
74.585996999999935
 20
64.051945000000046
 30
0.0
  0
VERTEX
  5
15C9
  8
0
 10
74.634172999999947
 20
64.002782000000025
 30
0.0
  0
VERTEX
  5
15CA
  8
0
 10
74.681527999999986
 20
63.952967000000058
 30
0.0
  0
VERTEX
  5
15CB
  8
0
 10
74.728029999999961
 20
63.902550000000019
 30
0.0
  0
VERTEX
  5
15CC
  8
0
 10
74.773644999999959
 20
63.851582999999998
 30
0.0
  0
VERTEX
  5
15CD
  8
0
 10
74.818336999999957
 20
63.800117
 30
0.0
  0
VERTEX
  5
15CE
  8
0
 10
74.862073999999922
 20
63.748203999999987
 30
0.0
  0
VERTEX
  5
15CF
  8
0
 10
74.904820000000001
 20
63.695895000000071
 30
0.0
  0
VERTEX
  5
15D0
  8
0
 10
74.946542999999934
 20
63.643240999999989
 30
0.0
  0
VERTEX
  5
15D1
  8
0
 10
74.987206999999984
 20
63.590294000000078
 30
0.0
  0
VERTEX
  5
15D2
  8
0
 10
75.026779000000005
 20
63.537106000000101
 30
0.0
  0
VERTEX
  5
15D3
  8
0
 10
75.06522499999997
 20
63.48372600000004
 30
0.0
  0
VERTEX
  5
15D4
  8
0
 10
75.102510999999964
 20
63.430207999999993
 30
0.0
  0
VERTEX
  5
15D5
  8
0
 10
75.13861399999999
 20
63.376594000000061
 30
0.0
  0
VERTEX
  5
15D6
  8
0
 10
75.173562999999973
 20
63.32289500000001
 30
0.0
  0
VERTEX
  5
15D7
  8
0
 10
75.207396999999915
 20
63.269112999999948
 30
0.0
  0
VERTEX
  5
15D8
  8
0
 10
75.240155999999985
 20
63.215253000000082
 30
0.0
  0
VERTEX
  5
15D9
  8
0
 10
75.271879999999982
 20
63.161316000000049
 30
0.0
  0
VERTEX
  5
15DA
  8
0
 10
75.30260899999999
 20
63.107306999999992
 30
0.0
  0
VERTEX
  5
15DB
  8
0
 10
75.33238099999997
 20
63.053226000000102
 30
0.0
  0
VERTEX
  5
15DC
  8
0
 10
75.361238999999983
 20
62.999079000000052
 30
0.0
  0
VERTEX
  5
15DD
  8
0
 10
75.389219999999938
 20
62.944867000000038
 30
0.0
  0
VERTEX
  5
15DE
  8
0
 10
75.416364999999956
 20
62.890594000000078
 30
0.0
  0
VERTEX
  5
15DF
  8
0
 10
75.442713999999995
 20
62.83626200000004
 30
0.0
  0
VERTEX
  5
15E0
  8
0
 10
75.46830700000001
 20
62.781874000000009
 30
0.0
  0
VERTEX
  5
15E1
  8
0
 10
75.493181999999962
 20
62.72743400000013
 30
0.0
  0
VERTEX
  5
15E2
  8
0
 10
75.517381000000029
 20
62.672943000000032
 30
0.0
  0
VERTEX
  5
15E3
  8
0
 10
75.540942999999999
 20
62.61840600000005
 30
0.0
  0
VERTEX
  5
15E4
  8
0
 10
75.563907999999984
 20
62.563825000000072
 30
0.0
  0
VERTEX
  5
15E5
  8
0
 10
75.586314999999985
 20
62.50920300000007
 30
0.0
  0
VERTEX
  5
15E6
  8
0
 10
75.60820499999997
 20
62.454543000000051
 30
0.0
  0
VERTEX
  5
15E7
  8
0
 10
75.629616999999968
 20
62.399848000000013
 30
0.0
  0
VERTEX
  5
15E8
  8
0
 10
75.650590999999991
 20
62.345120999999949
 30
0.0
  0
VERTEX
  5
15E9
  8
0
 10
75.671166999999997
 20
62.290364000000068
 30
0.0
  0
VERTEX
  5
15EA
  8
0
 10
75.691384999999997
 20
62.235581000000018
 30
0.0
  0
VERTEX
  5
15EB
  8
0
 10
75.711284000000006
 20
62.18077500000004
 30
0.0
  0
VERTEX
  5
15EC
  8
0
 10
75.730903999999981
 20
62.125948000000108
 30
0.0
  0
VERTEX
  5
15ED
  8
0
 10
75.750285999999988
 20
62.071103999999991
 30
0.0
  0
VERTEX
  5
15EE
  8
0
 10
75.769468999999987
 20
62.016245000000019
 30
0.0
  0
VERTEX
  5
15EF
  8
0
 10
75.788491999999991
 20
61.961373999999971
 30
0.0
  0
VERTEX
  5
15F0
  8
0
 10
75.807395999999954
 20
61.906494000000059
 30
0.0
  0
VERTEX
  5
15F1
  8
0
 10
75.82621999999995
 20
61.851609000000053
 30
0.0
  0
VERTEX
  5
15F2
  8
0
 10
75.845004999999929
 20
61.796721000000041
 30
0.0
  0
SEQEND
  5
15F3
  8
0
  0
ARC
  5
197
  8
0
 10
71.849999999999994
 20
62.0
 30
0.0
 40
2.0
 50
270.0
 51
0.0
  0
ARC
  5
198
  8
0
 10
73.974857999999955
 20
59.5
 30
0.0
 40
3.0
 50
14.737203999999201
 51
51.995966999999531
  0
POLYLINE
  5
199
  8
0
 66
     1
 10
0.0
 20
0.0
 30
0.0
  0
VERTEX
  5
15F4
  8
0
 10
73.849999999999994
 20
60.0
 30
0.0
  0
VERTEX
  5
15F5
  8
0
 10
73.883224999999953
 20
59.98622000000001
 30
0.0
  0
VERTEX
  5
15F6
  8
0
 10
73.916464999999988
 20
59.972405000000087
 30
0.0
  0
VERTEX
  5
15F7
  8
0
 10
73.949730999999957
 20
59.958521000000019
 30
0.0
  0
VERTEX
  5
15F8
  8
0
 10
73.983037999999993
 20
59.94453400000009
 30
0.0
  0
VERTEX
  5
15F9
  8
0
 10
74.016400000000004
 20
59.930409000000047
 30
0.0
  0
VERTEX
  5
15FA
  8
0
 10
74.04982899999996
 20
59.916110000000117
 30
0.0
  0
VERTEX
  5
15FB
  8
0
 10
74.083339999999993
 20
59.901605000000131
 30
0.0
  0
VERTEX
  5
15FC
  8
0
 10
74.116946999999954
 20
59.886857999999961
 30
0.0
  0
VERTEX
  5
15FD
  8
0
 10
74.15066200000004
 20
59.871834000000028
 30
0.0
  0
VERTEX
  5
15FE
  8
0
 10
74.184498999999974
 20
59.856499999999983
 30
0.0
  0
VERTEX
  5
15FF
  8
0
 10
74.218472999999989
 20
59.840820000000001
 30
0.0
  0
VERTEX
  5
1600
  8
0
 10
74.252595999999954
 20
59.82476000000009
 30
0.0
  0
VERTEX
  5
1601
  8
0
 10
74.286881999999963
 20
59.808286000000059
 30
0.0
  0
VERTEX
  5
1602
  8
0
 10
74.321345999999977
 20
59.791362000000049
 30
0.0
  0
VERTEX
  5
1603
  8
0
 10
74.355998999999969
 20
59.773956000000112
 30
0.0
  0
VERTEX
  5
1604
  8
0
 10
74.390857000000011
 20
59.756031
 30
0.0
  0
VERTEX
  5
1605
  8
0
 10
74.42593199999996
 20
59.737553000000041
 30
0.0
  0
VERTEX
  5
1606
  8
0
 10
74.461238000000009
 20
59.718487999999979
 30
0.0
  0
VERTEX
  5
1607
  8
0
 10
74.496789000000007
 20
59.698802000000107
 30
0.0
  0
VERTEX
  5
1608
  8
0
 10
74.532598999999976
 20
59.678459000000089
 30
0.0
  0
VERTEX
  5
1609
  8
0
 10
74.568680999999998
 20
59.6574260000001
 30
0.0
  0
VERTEX
  5
160A
  8
0
 10
74.605047999999982
 20
59.635667000000012
 30
0.0
  0
VERTEX
  5
160B
  8
0
 10
74.641714000000007
 20
59.613149000000021
 30
0.0
  0
VERTEX
  5
160C
  8
0
 10
74.678692999999981
 20
59.589835999999991
 30
0.0
  0
VERTEX
  5
160D
  8
0
 10
74.715998999999925
 20
59.565694000000008
 30
0.0
  0
VERTEX
  5
160E
  8
0
 10
74.75364399999998
 20
59.540689000000043
 30
0.0
  0
VERTEX
  5
160F
  8
0
 10
74.791642999999937
 20
59.514786000000072
 30
0.0
  0
VERTEX
  5
1610
  8
0
 10
74.830008999999933
 20
59.487949999999962
 30
0.0
  0
VERTEX
  5
1611
  8
0
 10
74.868755999999991
 20
59.46014700000012
 30
0.0
  0
VERTEX
  5
1612
  8
0
 10
74.90789799999996
 20
59.431343000000084
 30
0.0
  0
VERTEX
  5
1613
  8
0
 10
74.947442999999936
 20
59.40151400000002
 30
0.0
  0
VERTEX
  5
1614
  8
0
 10
74.98738199999994
 20
59.370684000000097
 30
0.0
  0
VERTEX
  5
1615
  8
0
 10
75.027702000000005
 20
59.338886000000002
 30
0.0
  0
VERTEX
  5
1616
  8
0
 10
75.068388999999996
 20
59.306156000000101
 30
0.0
  0
VERTEX
  5
1617
  8
0
 10
75.109430000000003
 20
59.272527000000082
 30
0.0
  0
VERTEX
  5
1618
  8
0
 10
75.150811000000004
 20
59.238036000000079
 30
0.0
  0
VERTEX
  5
1619
  8
0
 10
75.192517999999978
 20
59.202715000000012
 30
0.0
  0
VERTEX
  5
161A
  8
0
 10
75.234537999999944
 20
59.166600000000017
 30
0.0
  0
VERTEX
  5
161B
  8
0
 10
75.276856999999978
 20
59.129725000000008
 30
0.0
  0
VERTEX
  5
161C
  8
0
 10
75.319461999999959
 20
59.09212500000001
 30
0.0
  0
VERTEX
  5
161D
  8
0
 10
75.362338999999992
 20
59.053834000000052
 30
0.0
  0
VERTEX
  5
161E
  8
0
 10
75.405473999999941
 20
59.014887000000051
 30
0.0
  0
VERTEX
  5
161F
  8
0
 10
75.448854000000011
 20
58.975319000000013
 30
0.0
  0
VERTEX
  5
1620
  8
0
 10
75.492464999999953
 20
58.935162999999989
 30
0.0
  0
VERTEX
  5
1621
  8
0
 10
75.536292999999972
 20
58.894453999999989
 30
0.0
  0
VERTEX
  5
1622
  8
0
 10
75.580325999999928
 20
58.853228000000058
 30
0.0
  0
VERTEX
  5
1623
  8
0
 10
75.624548999999973
 20
58.811516999999981
 30
0.0
  0
VERTEX
  5
1624
  8
0
 10
75.668948999999969
 20
58.769358000000011
 30
0.0
  0
VERTEX
  5
1625
  8
0
 10
75.713512000000009
 20
58.726785000000064
 30
0.0
  0
VERTEX
  5
1626
  8
0
 10
75.758224999999953
 20
58.683831000000062
 30
0.0
  0
VERTEX
  5
1627
  8
0
 10
75.803072999999955
 20
58.640533000000012
 30
0.0
  0
VERTEX
  5
1628
  8
0
 10
75.848043999999987
 20
58.596923000000061
 30
0.0
  0
VERTEX
  5
1629
  8
0
 10
75.893123999999972
 20
58.553037000000018
 30
0.0
  0
VERTEX
  5
162A
  8
0
 10
75.938298999999944
 20
58.508910000000007
 30
0.0
  0
VERTEX
  5
162B
  8
0
 10
75.983555999999993
 20
58.464574999999961
 30
0.0
  0
VERTEX
  5
162C
  8
0
 10
76.028879999999987
 20
58.420067000000017
 30
0.0
  0
VERTEX
  5
162D
  8
0
 10
76.074259000000012
 20
58.375422000000071
 30
0.0
  0
VERTEX
  5
162E
  8
0
 10
76.119678999999991
 20
58.33067200000005
 30
0.0
  0
VERTEX
  5
162F
  8
0
 10
76.165125999999958
 20
58.285853999999972
 30
0.0
  0
VERTEX
  5
1630
  8
0
 10
76.210587000000004
 20
58.241002000000087
 30
0.0
  0
SEQEND
  5
1631
  8
0
  0
ARC
  5
19A
  8
0
 10
44.135589000000003
 20
45.0
 30
0.0
 40
35.0
 50
348.46304100000037
 51
11.537009999999301
  0
ARC
  5
19B
  8
0
 10
18.849999999999991
 20
45.0
 30
0.0
 40
60.0
 50
345.26279600000078
 51
353.20407600000118
  0
POLYLINE
  5
19C
  8
0
 66
     1
 10
0.0
 20
0.0
 30
0.0
  0
VERTEX
  5
1632
  8
0
 10
75.822009000000008
 20
61.863902000000053
 30
0.0
  0
VERTEX
  5
1633
  8
0
 10
75.832631000000021
 20
61.829755000000091
 30
0.0
  0
VERTEX
  5
1634
  8
0
 10
75.843247999999988
 20
61.795614000000107
 30
0.0
  0
VERTEX
  5
1635
  8
0
 10
75.853854999999982
 20
61.76148400000011
 30
0.0
  0
VERTEX
  5
1636
  8
0
 10
75.864447999999953
 20
61.727370000000057
 30
0.0
  0
VERTEX
  5
1637
  8
0
 10
75.875020999999975
 20
61.693278999999961
 30
0.0
  0
VERTEX
  5
1638
  8
0
 10
75.885569999999944
 20
61.659215000000017
 30
0.0
  0
VERTEX
  5
1639
  8
0
 10
75.896088999999989
 20
61.625185000000101
 30
0.0
  0
VERTEX
  5
163A
  8
0
 10
75.906575000000004
 20
61.591193000000089
 30
0.0
  0
VERTEX
  5
163B
  8
0
 10
75.917021000000005
 20
61.55724500000008
 30
0.0
  0
VERTEX
  5
163C
  8
0
 10
75.927424000000002
 20
61.523347000000058
 30
0.0
  0
VERTEX
  5
163D
  8
0
 10
75.937778000000009
 20
61.489504000000011
 30
0.0
  0
VERTEX
  5
163E
  8
0
 10
75.948077999999981
 20
61.455723000000027
 30
0.0
  0
VERTEX
  5
163F
  8
0
 10
75.958319999999986
 20
61.422007000000001
 30
0.0
  0
VERTEX
  5
1640
  8
0
 10
75.96849899999998
 20
61.388364000000017
 30
0.0
  0
VERTEX
  5
1641
  8
0
 10
75.978608999999963
 20
61.354797000000083
 30
0.0
  0
VERTEX
  5
1642
  8
0
 10
75.988645999999974
 20
61.321314000000029
 30
0.0
  0
VERTEX
  5
1643
  8
0
 10
75.998606000000024
 20
61.287919000000102
 30
0.0
  0
VERTEX
  5
1644
  8
0
 10
76.008481999999987
 20
61.25461800000005
 30
0.0
  0
VERTEX
  5
1645
  8
0
 10
76.018270999999999
 20
61.221416999999967
 30
0.0
  0
VERTEX
  5
1646
  8
0
 10
76.027967999999959
 20
61.188320999999974
 30
0.0
  0
VERTEX
  5
1647
  8
0
 10
76.037566999999996
 20
61.155335000000044
 30
0.0
  0
VERTEX
  5
1648
  8
0
 10
76.047064000000006
 20
61.122465000000027
 30
0.0
  0
VERTEX
  5
1649
  8
0
 10
76.056452999999948
 20
61.089716999999951
 30
0.0
  0
VERTEX
  5
164A
  8
0
 10
76.065731
 20
61.057096000000001
 30
0.0
  0
VERTEX
  5
164B
  8
0
 10
76.074892000000006
 20
61.024608000000057
 30
0.0
  0
VERTEX
  5
164C
  8
0
 10
76.083931000000035
 20
60.992257999999993
 30
0.0
  0
VERTEX
  5
164D
  8
0
 10
76.092842999999931
 20
60.960052000000019
 30
0.0
  0
VERTEX
  5
164E
  8
0
 10
76.101623999999916
 20
60.92799500000001
 30
0.0
  0
VERTEX
  5
164F
  8
0
 10
76.110268999999974
 20
60.896091999999953
 30
0.0
  0
VERTEX
  5
1650
  8
0
 10
76.11877199999995
 20
60.864350000000059
 30
0.0
  0
SEQEND
  5
1651
  8
0
  0
ARC
  5
19D
  8
0
 10
18.849999999999991
 20
45.0
 30
0.0
 40
60.0
 50
6.7959239999987631
 51
14.737203999999201
  0
ARC
  5
19E
  8
0
 10
71.849999999999994
 20
63.112838000000011
 30
0.0
 40
2.0
 50
0.0
 51
90.0
  0
LINE
  5
19F
  8
0
 10
73.849999999999994
 20
63.112838000000011
 30
0.0
 11
73.849999999999994
 21
62.0
 31
0.0
  0
POLYLINE
  5
1A0
  8
0
 66
     1
 10
0.0
 20
0.0
 30
0.0
  0
VERTEX
  5
1652
  8
0
 10
20.97977999999997
 20
260.65345900000011
 30
0.0
  0
VERTEX
  5
1653
  8
0
 10
20.661043999999968
 20
262.30311699999999
 30
0.0
  0
VERTEX
  5
1654
  8
0
 10
19.714531999999991
 20
263.90264999999988
 30
0.0
  0
VERTEX
  5
1655
  8
0
 10
18.169004000000001
 20
265.40345699999989
 30
0.0
  0
VERTEX
  5
1656
  8
0
 10
16.07142000000001
 20
266.75993799999998
 30
0.0
  0
VERTEX
  5
1657
  8
0
 10
13.485514999999991
 20
267.93087600000013
 30
0.0
  0
VERTEX
  5
1658
  8
0
 10
10.48985799999994
 20
268.8806919999999
 30
0.0
  0
VERTEX
  5
1659
  8
0
 10
7.1754729999999816
 20
269.58052800000002
 30
0.0
  0
VERTEX
  5
165A
  8
0
 10
3.6430649999999778
 20
270.009119
 30
0.0
  0
VERTEX
  5
165B
  8
0
 10
-0.0000360000000228
 20
270.15344299999998
 30
0.0
  0
VERTEX
  5
165C
  8
0
 10
-3.6431360000000259
 20
270.00911400000001
 30
0.0
  0
VERTEX
  5
165D
  8
0
 10
-7.1755420000000347
 20
269.58051699999987
 30
0.0
  0
VERTEX
  5
165E
  8
0
 10
-10.489922
 20
268.88067600000011
 30
0.0
  0
VERTEX
  5
165F
  8
0
 10
-13.48557100000002
 20
267.93085400000001
 30
0.0
  0
VERTEX
  5
1660
  8
0
 10
-16.071467000000009
 20
266.75991199999987
 30
0.0
  0
VERTEX
  5
1661
  8
0
 10
-18.169041000000021
 20
265.40342800000002
 30
0.0
  0
VERTEX
  5
1662
  8
0
 10
-19.71455700000001
 20
263.90261900000002
 30
0.0
  0
VERTEX
  5
1663
  8
0
 10
-20.661055999999999
 20
262.30308400000013
 30
0.0
  0
VERTEX
  5
1664
  8
0
 10
-20.97978000000003
 20
260.65345900000011
 30
0.0
  0
SEQEND
  5
1665
  8
0
  0
POLYLINE
  5
1A1
  8
0
 66
     1
 10
0.0
 20
0.0
 30
0.0
  0
VERTEX
  5
1666
  8
0
 10
24.79925299999999
 20
255.09793099999999
 30
0.0
  0
VERTEX
  5
1667
  8
0
 10
21.908693
 20
256.17964799999999
 30
0.0
  0
VERTEX
  5
1668
  8
0
 10
18.352449
 20
257.11206299999998
 30
0.0
  0
VERTEX
  5
1669
  8
0
 10
14.238574
 20
257.86684500000001
 30
0.0
  0
VERTEX
  5
166A
  8
0
 10
9.6920679999999777
 20
258.42105900000013
 30
0.0
  0
VERTEX
  5
166B
  8
0
 10
4.8510729999999853
 20
258.75786599999998
 30
0.0
  0
VERTEX
  5
166C
  8
0
 10
-0.1373190000000193
 20
258.86703199999988
 30
0.0
  0
VERTEX
  5
166D
  8
0
 10
-5.1215380000000152
 20
258.74524199999991
 30
0.0
  0
VERTEX
  5
166E
  8
0
 10
-9.9501430000000255
 20
258.39619399999998
 30
0.0
  0
VERTEX
  5
166F
  8
0
 10
-14.476417000000019
 20
257.83049499999998
 30
0.0
  0
VERTEX
  5
1670
  8
0
 10
-18.56283300000004
 20
257.06533300000001
 30
0.0
  0
VERTEX
  5
1671
  8
0
 10
-22.085227
 20
256.12395700000002
 30
0.0
  0
VERTEX
  5
1672
  8
0
 10
-24.79925299999999
 20
255.09793099999999
 30
0.0
  0
SEQEND
  5
1673
  8
0
  0
ARC
  5
1A2
  8
0
 10
0.0
 20
216.68293600000001
 30
0.0
 40
45.724334999999989
 50
57.155259000000079
 51
122.8447409999998
  0
ARC
  5
1A3
  8
0
 10
13.59274399999995
 20
249.43138400000009
 30
0.0
 40
5.4072559999999994
 50
269.0172309999997
 51
90.982769000000204
  0
POLYLINE
  5
1A4
  8
0
 66
     1
 10
0.0
 20
0.0
 30
0.0
  0
VERTEX
  5
1674
  8
0
 10
13.50000000000002
 20
254.83784399999999
 30
0.0
  0
VERTEX
  5
1675
  8
0
 10
8.8939609999999618
 20
255.35647
 30
0.0
  0
VERTEX
  5
1676
  8
0
 10
4.0176829999999759
 20
255.65549300000001
 30
0.0
  0
VERTEX
  5
1677
  8
0
 10
-0.9806700000000319
 20
255.72582800000001
 30
0.0
  0
VERTEX
  5
1678
  8
0
 10
-5.9492250000000118
 20
255.56533699999989
 30
0.0
  0
VERTEX
  5
1679
  8
0
 10
-10.73701700000003
 20
255.17889799999989
 30
0.0
  0
VERTEX
  5
167A
  8
0
 10
-13.50000000000002
 20
254.83784399999999
 30
0.0
  0
SEQEND
  5
167B
  8
0
  0
POLYLINE
  5
1A5
  8
0
 66
     1
 10
0.0
 20
0.0
 30
0.0
  0
VERTEX
  5
167C
  8
0
 10
13.50000000000002
 20
244.024923
 30
0.0
  0
VERTEX
  5
167D
  8
0
 10
8.8939609999999618
 20
244.54354799999999
 30
0.0
  0
VERTEX
  5
167E
  8
0
 10
4.0176829999999759
 20
244.84257099999999
 30
0.0
  0
VERTEX
  5
167F
  8
0
 10
-0.9806700000000319
 20
244.91290599999999
 30
0.0
  0
VERTEX
  5
1680
  8
0
 10
-5.9492250000000118
 20
244.75241600000001
 30
0.0
  0
VERTEX
  5
1681
  8
0
 10
-10.73701700000003
 20
244.36597599999999
 30
0.0
  0
VERTEX
  5
1682
  8
0
 10
-13.50000000000002
 20
244.024923
 30
0.0
  0
SEQEND
  5
1683
  8
0
  0
POLYLINE
  5
1A6
  8
0
 66
     1
 10
0.0
 20
0.0
 30
0.0
  0
VERTEX
  5
1684
  8
0
 10
-4.4906900000000292
 20
255.73026200000001
 30
0.0
  0
VERTEX
  5
1685
  8
0
 10
-5.9775280000000057
 20
255.6520220000001
 30
0.0
  0
VERTEX
  5
1686
  8
0
 10
-7.4191900000000137
 20
255.41967899999989
 30
0.0
  0
VERTEX
  5
1687
  8
0
 10
-8.7718700000000354
 20
255.04029299999999
 30
0.0
  0
VERTEX
  5
1688
  8
0
 10
-9.9944690000000378
 20
254.52539100000001
 30
0.0
  0
VERTEX
  5
1689
  8
0
 10
-11.049838000000021
 20
253.89061799999999
 30
0.0
  0
VERTEX
  5
168A
  8
0
 10
-11.90591100000003
 20
253.15526199999991
 30
0.0
  0
VERTEX
  5
168B
  8
0
 10
-12.53667700000002
 20
252.341666
 30
0.0
  0
VERTEX
  5
168C
  8
0
 10
-12.92296900000002
 20
251.47454999999999
 30
0.0
  0
VERTEX
  5
168D
  8
0
 10
-13.05305000000001
 20
250.580262
 30
0.0
  0
VERTEX
  5
168E
  8
0
 10
-12.92296900000002
 20
249.68597399999999
 30
0.0
  0
VERTEX
  5
168F
  8
0
 10
-12.53667700000002
 20
248.81885799999989
 30
0.0
  0
VERTEX
  5
1690
  8
0
 10
-11.90591100000003
 20
248.00526199999999
 30
0.0
  0
VERTEX
  5
1691
  8
0
 10
-11.049838000000021
 20
247.26990599999999
 30
0.0
  0
VERTEX
  5
1692
  8
0
 10
-9.9944690000000378
 20
246.635133
 30
0.0
  0
VERTEX
  5
1693
  8
0
 10
-8.7718700000000354
 20
246.12023099999999
 30
0.0
  0
VERTEX
  5
1694
  8
0
 10
-7.4191900000000137
 20
245.74084500000001
 30
0.0
  0
VERTEX
  5
1695
  8
0
 10
-5.9775280000000057
 20
245.50850199999999
 30
0.0
  0
VERTEX
  5
1696
  8
0
 10
-4.4906900000000292
 20
245.43026199999991
 30
0.0
  0
SEQEND
  5
1697
  8
0
  0
LINE
  5
1A7
  8
0
 10
-21.356261000000011
 20
257.11343100000011
 30
0.0
 11
-20.979782000000029
 21
260.65344299999998
 31
0.0
  0
ARC
  5
1A8
  8
0
 10
-13.59274400000001
 20
249.43138400000009
 30
0.0
 40
5.4072559999999994
 50
89.017230999999782
 51
270.98276900000019
  0
POLYLINE
  5
1A9
  8
0
 66
     1
 10
0.0
 20
0.0
 30
0.0
  0
VERTEX
  5
1698
  8
0
 10
-24.79925299999999
 20
255.09793099999999
 30
0.0
  0
VERTEX
  5
1699
  8
0
 10
-26.93630000000001
 20
253.899778
 30
0.0
  0
VERTEX
  5
169A
  8
0
 10
-28.254901000000011
 20
252.62159500000001
 30
0.0
  0
VERTEX
  5
169B
  8
0
 10
-28.71499200000002
 20
251.30221900000001
 30
0.0
  0
VERTEX
  5
169C
  8
0
 10
-28.715320000000052
 20
251.26587000000001
 30
0.0
  0
SEQEND
  5
169D
  8
0
  0
POLYLINE
  5
1AA
  8
0
 66
     1
 10
0.0
 20
0.0
 30
0.0
  0
VERTEX
  5
169E
  8
0
 10
4.4906899999999723
 20
245.43026199999991
 30
0.0
  0
VERTEX
  5
169F
  8
0
 10
5.9775279999999782
 20
245.50850199999999
 30
0.0
  0
VERTEX
  5
16A0
  8
0
 10
7.4191899999999862
 20
245.74084500000001
 30
0.0
  0
VERTEX
  5
16A1
  8
0
 10
8.7718699999999785
 20
246.12023099999999
 30
0.0
  0
VERTEX
  5
16A2
  8
0
 10
9.9944690000000094
 20
246.635133
 30
0.0
  0
VERTEX
  5
16A3
  8
0
 10
11.04983799999993
 20
247.26990599999999
 30
0.0
  0
VERTEX
  5
16A4
  8
0
 10
11.905910999999969
 20
248.00526199999999
 30
0.0
  0
VERTEX
  5
16A5
  8
0
 10
12.53667699999996
 20
248.81885799999989
 30
0.0
  0
VERTEX
  5
16A6
  8
0
 10
12.922968999999989
 20
249.68597399999999
 30
0.0
  0
VERTEX
  5
16A7
  8
0
 10
13.05305000000001
 20
250.580262
 30
0.0
  0
VERTEX
  5
16A8
  8
0
 10
12.922968999999989
 20
251.47454999999999
 30
0.0
  0
VERTEX
  5
16A9
  8
0
 10
12.53667699999996
 20
252.341666
 30
0.0
  0
VERTEX
  5
16AA
  8
0
 10
11.905910999999969
 20
253.15526199999991
 30
0.0
  0
VERTEX
  5
16AB
  8
0
 10
11.04983799999993
 20
253.89061799999999
 30
0.0
  0
VERTEX
  5
16AC
  8
0
 10
9.9944690000000094
 20
254.52539100000001
 30
0.0
  0
VERTEX
  5
16AD
  8
0
 10
8.7718699999999785
 20
255.04029299999999
 30
0.0
  0
VERTEX
  5
16AE
  8
0
 10
7.4191899999999862
 20
255.41967899999989
 30
0.0
  0
VERTEX
  5
16AF
  8
0
 10
5.9775279999999782
 20
255.6520220000001
 30
0.0
  0
VERTEX
  5
16B0
  8
0
 10
4.4906899999999723
 20
255.73026200000001
 30
0.0
  0
SEQEND
  5
16B1
  8
0
  0
LINE
  5
1AB
  8
0
 10
-4.4906900000000292
 20
245.43026199999991
 30
0.0
 11
4.4906899999999723
 21
245.43026199999991
 31
0.0
  0
LINE
  5
1AC
  8
0
 10
21.356260999999989
 20
257.11343100000011
 30
0.0
 11
20.979781999999972
 21
260.65344299999998
 31
0.0
  0
POLYLINE
  5
1AD
  8
0
 66
     1
 10
0.0
 20
0.0
 30
0.0
  0
VERTEX
  5
16B2
  8
0
 10
28.715319999999991
 20
251.26587000000001
 30
0.0
  0
VERTEX
  5
16B3
  8
0
 10
28.279069999999962
 20
252.585813
 30
0.0
  0
VERTEX
  5
16B4
  8
0
 10
26.983574000000001
 20
253.8656499999999
 30
0.0
  0
VERTEX
  5
16B5
  8
0
 10
24.868196999999981
 20
255.066495
 30
0.0
  0
VERTEX
  5
16B6
  8
0
 10
24.79925299999999
 20
255.09793099999999
 30
0.0
  0
SEQEND
  5
16B7
  8
0
  0
ENDBLK
  5
1AF
  8
0
  0
ENDSEC
  0
SECTION
  2
ENTITIES
  0
ARC
  5
AD
  8
0
  6
BYBLOCK
 62
     0
 10
717.29780239598563
 20
275.04417391160638
 30
0.0
 40
500.0
 50
180.44453999999959
 51
183.94602499999999
  0
ARC
  5
AE
  8
0
  6
BYBLOCK
 62
     0
 10
-225.2414596040143
 20
275.04417391160638
 30
0.0
 40
500.0
 50
356.05397499999992
 51
359.55546000000021
  0
LINE
  5
AF
  8
0
  6
BYBLOCK
 62
     0
 10
307.8781713959857
 20
77.158021911606511
 30
0.0
 11
319.87817139598559
 21
77.158021911606511
 31
0.0
  0
LINE
  5
B0
  8
0
  6
BYBLOCK
 62
     0
 10
309.8781713959857
 20
79.898999911606438
 30
0.0
 11
317.8781713959857
 21
79.898999911606438
 31
0.0
  0
LINE
  5
B1
  8
0
  6
BYBLOCK
 62
     0
 10
309.8781713959857
 20
85.011837911606449
 30
0.0
 11
317.8781713959857
 21
85.011837911606449
 31
0.0
  0
LINE
  5
B2
  8
0
  6
BYBLOCK
 62
     0
 10
320.00302939598561
 20
47.398999911606431
 30
0.0
 11
298.87817139598559
 21
47.398999911606431
 31
0.0
  0
ARC
  5
B3
  8
0
  6
BYBLOCK
 62
     0
 10
126.9914323959856
 20
138.7807639116065
 30
0.0
 40
100.0
 50
342.44231199999928
 51
359.33725899999951
  0
ARC
  5
B4
  8
0
  6
BYBLOCK
 62
     0
 10
365.06491039598569
 20
138.7807639116065
 30
0.0
 40
100.0
 50
180.66274100000041
 51
197.55768800000061
  0
LINE
  5
B5
  8
0
  6
BYBLOCK
 62
     0
 10
272.02817139598568
 20
100.69899991160641
 30
0.0
 11
272.02817139598568
 21
170.0989999116064
 31
0.0
  0
LINE
  5
B6
  8
0
  6
BYBLOCK
 62
     0
 10
220.02817139598559
 20
100.69899991160641
 30
0.0
 11
220.02817139598559
 21
170.0989999116064
 31
0.0
  0
LINE
  5
B7
  8
0
  6
BYBLOCK
 62
     0
 10
271.02817139598568
 20
19.898999911606431
 30
0.0
 11
221.02817139598559
 21
19.898999911606431
 31
0.0
  0
LINE
  5
B8
  8
0
  6
BYBLOCK
 62
     0
 10
220.07817139598569
 20
99.898999911606438
 30
0.0
 11
271.97817139598561
 21
99.898999911606438
 31
0.0
  0
LINE
  5
B9
  8
0
  6
BYBLOCK
 62
     0
 10
271.97817139598561
 20
100.3989999116064
 30
0.0
 11
220.07817139598569
 21
100.3989999116064
 31
0.0
  0
LINE
  5
BA
  8
0
  6
BYBLOCK
 62
     0
 10
271.72817139598561
 20
22.898999911606431
 30
0.0
 11
220.32817139598569
 21
22.898999911606431
 31
0.0
  0
LINE
  5
BB
  8
0
  6
BYBLOCK
 62
     0
 10
220.02817139598559
 20
99.598999911606484
 30
0.0
 11
272.02817139598568
 21
99.598999911606484
 31
0.0
  0
LINE
  5
BC
  8
0
  6
BYBLOCK
 62
     0
 10
220.02817139598559
 20
23.19899991160645
 30
0.0
 11
272.02817139598568
 21
23.19899991160645
 31
0.0
  0
LINE
  5
BD
  8
0
  6
BYBLOCK
 62
     0
 10
220.02817139598559
 20
99.598999911606484
 30
0.0
 11
220.02817139598559
 21
23.19899991160645
 31
0.0
  0
LINE
  5
BE
  8
0
  6
BYBLOCK
 62
     0
 10
220.32817139598569
 20
22.898999911606431
 30
0.0
 11
220.02817139598559
 21
23.19899991160645
 31
0.0
  0
LINE
  5
BF
  8
0
  6
BYBLOCK
 62
     0
 10
221.02817139598559
 20
22.898999911606431
 30
0.0
 11
221.02817139598559
 21
19.898999911606431
 31
0.0
  0
ARC
  5
C0
  8
0
  6
BYBLOCK
 62
     0
 10
220.32817139598569
 20
100.69899991160641
 30
0.0
 40
0.3
 50
180.0
 51
270.0
  0
LINE
  5
C1
  8
0
  6
BYBLOCK
 62
     0
 10
220.07817139598569
 20
100.3989999116064
 30
0.0
 11
220.07817139598569
 21
99.898999911606438
 31
0.0
  0
LINE
  5
C2
  8
0
  6
BYBLOCK
 62
     0
 10
220.32817139598569
 20
99.898999911606438
 30
0.0
 11
220.02817139598559
 21
99.598999911606484
 31
0.0
  0
ARC
  5
C3
  8
0
  6
BYBLOCK
 62
     0
 10
280.02817139598568
 20
39.398999911606431
 30
0.0
 40
8.0
 50
90.0
 51
180.0
  0
ARC
  5
C4
  8
0
  6
BYBLOCK
 62
     0
 10
291.25705639598561
 20
64.898999911606438
 30
0.0
 40
26.0
 50
137.69501000000031
 51
222.30498999999961
  0
LINE
  5
C5
  8
0
  6
BYBLOCK
 62
     0
 10
294.02817139598568
 20
82.398999911606438
 30
0.0
 11
294.02817139598568
 21
47.398999911606431
 31
0.0
  0
LINE
  5
C6
  8
0
  6
BYBLOCK
 62
     0
 10
297.52817139598568
 20
82.398999911606438
 30
0.0
 11
297.52817139598568
 21
47.399006911606477
 31
0.0
  0
LINE
  5
C7
  8
0
  6
BYBLOCK
 62
     0
 10
297.8781713959857
 20
81.398999911606438
 30
0.0
 11
297.8781713959857
 21
48.398999911606438
 31
0.0
  0
LINE
  5
C8
  8
0
  6
BYBLOCK
 62
     0
 10
294.02817139598568
 20
47.398999911606431
 30
0.0
 11
280.02817139598568
 21
47.398999911606431
 31
0.0
  0
LINE
  5
C9
  8
0
  6
BYBLOCK
 62
     0
 10
272.02817139598568
 20
23.19899991160645
 30
0.0
 11
272.02817139598568
 21
39.398999911606431
 31
0.0
  0
LINE
  5
CA
  8
0
  6
BYBLOCK
 62
     0
 10
271.72817139598561
 20
22.898999911606431
 30
0.0
 11
272.02817139598568
 21
23.19899991160645
 31
0.0
  0
LINE
  5
CB
  8
0
  6
BYBLOCK
 62
     0
 10
271.02817139598568
 20
22.898999911606431
 30
0.0
 11
271.02817139598568
 21
19.898999911606431
 31
0.0
  0
ARC
  5
CC
  8
0
  6
BYBLOCK
 62
     0
 10
298.87817139598559
 20
48.398999911606438
 30
0.0
 40
1.0
 50
180.0
 51
270.0
  0
LINE
  5
CD
  8
0
  6
BYBLOCK
 62
     0
 10
297.52817139598568
 20
47.399006911606477
 30
0.0
 11
294.02817139598568
 21
47.399006911606477
 31
0.0
  0
LINE
  5
CE
  8
0
  6
BYBLOCK
 62
     0
 10
280.02817139598568
 20
82.398999911606438
 30
0.0
 11
294.02817139598568
 21
82.398999911606438
 31
0.0
  0
ARC
  5
CF
  8
0
  6
BYBLOCK
 62
     0
 10
280.02817139598568
 20
90.398999911606424
 30
0.0
 40
8.0
 50
180.0
 51
270.0
  0
LINE
  5
D0
  8
0
  6
BYBLOCK
 62
     0
 10
272.02817139598568
 20
90.398999911606424
 30
0.0
 11
272.02817139598568
 21
99.598999911606484
 31
0.0
  0
ARC
  5
D1
  8
0
  6
BYBLOCK
 62
     0
 10
271.72817139598561
 20
100.69899991160641
 30
0.0
 40
0.3
 50
270.0
 51
0.0
  0
LINE
  5
D2
  8
0
  6
BYBLOCK
 62
     0
 10
271.97817139598561
 20
100.3989999116064
 30
0.0
 11
271.97817139598561
 21
99.898999911606438
 31
0.0
  0
LINE
  5
D3
  8
0
  6
BYBLOCK
 62
     0
 10
272.02817139598568
 20
99.598999911606484
 30
0.0
 11
271.72817139598561
 21
99.898999911606438
 31
0.0
  0
ARC
  5
D4
  8
0
  6
BYBLOCK
 62
     0
 10
309.8781713959857
 20
81.898999911606424
 30
0.0
 40
2.0
 50
180.0
 51
270.0
  0
ARC
  5
D5
  8
0
  6
BYBLOCK
 62
     0
 10
298.87817139598559
 20
81.398999911606438
 30
0.0
 40
1.0
 50
90.0
 51
180.0
  0
LINE
  5
D6
  8
0
  6
BYBLOCK
 62
     0
 10
297.52817139598568
 20
49.898968911606509
 30
0.0
 11
297.8781713959857
 21
49.898968911606509
 31
0.0
  0
LINE
  5
D7
  8
0
  6
BYBLOCK
 62
     0
 10
297.52817139598568
 20
79.899029911606476
 30
0.0
 11
297.8781713959857
 21
79.899029911606476
 31
0.0
  0
POLYLINE
  5
D8
  8
0
  6
BYBLOCK
 62
     0
 66
     1
 10
0.0
 20
0.0
 30
0.0
  0
VERTEX
  5
FBA
  8
0
  6
BYBLOCK
 62
     0
 10
307.8781713959857
 20
79.898999911606438
 30
0.0
  0
VERTEX
  5
FBB
  8
0
  6
BYBLOCK
 62
     0
 10
307.84494639598557
 20
79.885219911606441
 30
0.0
  0
VERTEX
  5
FBC
  8
0
  6
BYBLOCK
 62
     0
 10
307.8117063959856
 20
79.871404911606533
 30
0.0
  0
VERTEX
  5
FBD
  8
0
  6
BYBLOCK
 62
     0
 10
307.77844039598563
 20
79.857520911606457
 30
0.0
  0
VERTEX
  5
FBE
  8
0
  6
BYBLOCK
 62
     0
 10
307.7451333959857
 20
79.843533911606514
 30
0.0
  0
VERTEX
  5
FBF
  8
0
  6
BYBLOCK
 62
     0
 10
307.71177139598558
 20
79.829408911606492
 30
0.0
  0
VERTEX
  5
FC0
  8
0
  6
BYBLOCK
 62
     0
 10
307.67834239598562
 20
79.815109911606555
 30
0.0
  0
VERTEX
  5
FC1
  8
0
  6
BYBLOCK
 62
     0
 10
307.64483139598559
 20
79.800604911606555
 30
0.0
  0
VERTEX
  5
FC2
  8
0
  6
BYBLOCK
 62
     0
 10
307.61122439598557
 20
79.785857911606385
 30
0.0
  0
VERTEX
  5
FC3
  8
0
  6
BYBLOCK
 62
     0
 10
307.5775093959856
 20
79.770833911606474
 30
0.0
  0
VERTEX
  5
FC4
  8
0
  6
BYBLOCK
 62
     0
 10
307.54367239598571
 20
79.755499911606421
 30
0.0
  0
VERTEX
  5
FC5
  8
0
  6
BYBLOCK
 62
     0
 10
307.50969839598559
 20
79.739819911606446
 30
0.0
  0
VERTEX
  5
FC6
  8
0
  6
BYBLOCK
 62
     0
 10
307.47557539598569
 20
79.723759911606521
 30
0.0
  0
VERTEX
  5
FC7
  8
0
  6
BYBLOCK
 62
     0
 10
307.44128939598562
 20
79.707285911606505
 30
0.0
  0
VERTEX
  5
FC8
  8
0
  6
BYBLOCK
 62
     0
 10
307.40682539598572
 20
79.690361911606487
 30
0.0
  0
VERTEX
  5
FC9
  8
0
  6
BYBLOCK
 62
     0
 10
307.37217239598561
 20
79.67295591160655
 30
0.0
  0
VERTEX
  5
FCA
  8
0
  6
BYBLOCK
 62
     0
 10
307.33731439598569
 20
79.655030911606445
 30
0.0
  0
VERTEX
  5
FCB
  8
0
  6
BYBLOCK
 62
     0
 10
307.30223939598562
 20
79.636552911606486
 30
0.0
  0
VERTEX
  5
FCC
  8
0
  6
BYBLOCK
 62
     0
 10
307.26693339598557
 20
79.617487911606403
 30
0.0
  0
VERTEX
  5
FCD
  8
0
  6
BYBLOCK
 62
     0
 10
307.23138239598569
 20
79.597801911606552
 30
0.0
  0
VERTEX
  5
FCE
  8
0
  6
BYBLOCK
 62
     0
 10
307.19557239598561
 20
79.577458911606513
 30
0.0
  0
VERTEX
  5
FCF
  8
0
  6
BYBLOCK
 62
     0
 10
307.15949039598559
 20
79.556425911606524
 30
0.0
  0
VERTEX
  5
FD0
  8
0
  6
BYBLOCK
 62
     0
 10
307.1231233959856
 20
79.53466691160645
 30
0.0
  0
VERTEX
  5
FD1
  8
0
  6
BYBLOCK
 62
     0
 10
307.08645739598558
 20
79.512148911606445
 30
0.0
  0
VERTEX
  5
FD2
  8
0
  6
BYBLOCK
 62
     0
 10
307.04947839598572
 20
79.488835911606429
 30
0.0
  0
VERTEX
  5
FD3
  8
0
  6
BYBLOCK
 62
     0
 10
307.0121723959856
 20
79.464693911606446
 30
0.0
  0
VERTEX
  5
FD4
  8
0
  6
BYBLOCK
 62
     0
 10
306.9745273959856
 20
79.439688911606481
 30
0.0
  0
VERTEX
  5
FD5
  8
0
  6
BYBLOCK
 62
     0
 10
306.93652839598559
 20
79.41378591160651
 30
0.0
  0
VERTEX
  5
FD6
  8
0
  6
BYBLOCK
 62
     0
 10
306.89816239598559
 20
79.386949911606393
 30
0.0
  0
VERTEX
  5
FD7
  8
0
  6
BYBLOCK
 62
     0
 10
306.85941539598571
 20
79.359146911606558
 30
0.0
  0
VERTEX
  5
FD8
  8
0
  6
BYBLOCK
 62
     0
 10
306.82027339598568
 20
79.330342911606522
 30
0.0
  0
VERTEX
  5
FD9
  8
0
  6
BYBLOCK
 62
     0
 10
306.78072839598559
 20
79.300513911606444
 30
0.0
  0
VERTEX
  5
FDA
  8
0
  6
BYBLOCK
 62
     0
 10
306.7407893959857
 20
79.269683911606535
 30
0.0
  0
VERTEX
  5
FDB
  8
0
  6
BYBLOCK
 62
     0
 10
306.70046939598558
 20
79.23788591160644
 30
0.0
  0
VERTEX
  5
FDC
  8
0
  6
BYBLOCK
 62
     0
 10
306.65978239598559
 20
79.205155911606539
 30
0.0
  0
VERTEX
  5
FDD
  8
0
  6
BYBLOCK
 62
     0
 10
306.61874139598558
 20
79.17152691160652
 30
0.0
  0
VERTEX
  5
FDE
  8
0
  6
BYBLOCK
 62
     0
 10
306.57736039598558
 20
79.137035911606503
 30
0.0
  0
VERTEX
  5
FDF
  8
0
  6
BYBLOCK
 62
     0
 10
306.53565339598572
 20
79.10171491160645
 30
0.0
  0
VERTEX
  5
FE0
  8
0
  6
BYBLOCK
 62
     0
 10
306.49363339598563
 20
79.065599911606455
 30
0.0
  0
VERTEX
  5
FE1
  8
0
  6
BYBLOCK
 62
     0
 10
306.45131439598572
 20
79.028724911606446
 30
0.0
  0
VERTEX
  5
FE2
  8
0
  6
BYBLOCK
 62
     0
 10
306.40870939598568
 20
78.991124911606448
 30
0.0
  0
VERTEX
  5
FE3
  8
0
  6
BYBLOCK
 62
     0
 10
306.36583239598559
 20
78.95283391160649
 30
0.0
  0
VERTEX
  5
FE4
  8
0
  6
BYBLOCK
 62
     0
 10
306.32269739598559
 20
78.913886911606482
 30
0.0
  0
VERTEX
  5
FE5
  8
0
  6
BYBLOCK
 62
     0
 10
306.27931739598557
 20
78.874318911606451
 30
0.0
  0
VERTEX
  5
FE6
  8
0
  6
BYBLOCK
 62
     0
 10
306.23570639598557
 20
78.834162911606427
 30
0.0
  0
VERTEX
  5
FE7
  8
0
  6
BYBLOCK
 62
     0
 10
306.19187839598561
 20
78.793453911606434
 30
0.0
  0
VERTEX
  5
FE8
  8
0
  6
BYBLOCK
 62
     0
 10
306.1478453959856
 20
78.752227911606496
 30
0.0
  0
VERTEX
  5
FE9
  8
0
  6
BYBLOCK
 62
     0
 10
306.10362239598561
 20
78.710516911606419
 30
0.0
  0
VERTEX
  5
FEA
  8
0
  6
BYBLOCK
 62
     0
 10
306.05922239598561
 20
78.668357911606449
 30
0.0
  0
VERTEX
  5
FEB
  8
0
  6
BYBLOCK
 62
     0
 10
306.01465939598557
 20
78.625784911606502
 30
0.0
  0
VERTEX
  5
FEC
  8
0
  6
BYBLOCK
 62
     0
 10
305.96994639598557
 20
78.582830911606493
 30
0.0
  0
VERTEX
  5
FED
  8
0
  6
BYBLOCK
 62
     0
 10
305.92509839598557
 20
78.539532911606443
 30
0.0
  0
VERTEX
  5
FEE
  8
0
  6
BYBLOCK
 62
     0
 10
305.88012639598571
 20
78.495922911606499
 30
0.0
  0
VERTEX
  5
FEF
  8
0
  6
BYBLOCK
 62
     0
 10
305.83504739598573
 20
78.452036911606456
 30
0.0
  0
VERTEX
  5
FF0
  8
0
  6
BYBLOCK
 62
     0
 10
305.7898723959857
 20
78.407909911606453
 30
0.0
  0
VERTEX
  5
FF1
  8
0
  6
BYBLOCK
 62
     0
 10
305.74461539598559
 20
78.363574911606406
 30
0.0
  0
VERTEX
  5
FF2
  8
0
  6
BYBLOCK
 62
     0
 10
305.69929139598571
 20
78.319066911606456
 30
0.0
  0
VERTEX
  5
FF3
  8
0
  6
BYBLOCK
 62
     0
 10
305.65391239598563
 20
78.27442191160651
 30
0.0
  0
VERTEX
  5
FF4
  8
0
  6
BYBLOCK
 62
     0
 10
305.60849239598571
 20
78.229671911606488
 30
0.0
  0
VERTEX
  5
FF5
  8
0
  6
BYBLOCK
 62
     0
 10
305.56304539598568
 20
78.18485391160641
 30
0.0
  0
VERTEX
  5
FF6
  8
0
  6
BYBLOCK
 62
     0
 10
305.51758439598558
 20
78.140001911606532
 30
0.0
  0
SEQEND
  5
FF7
  8
0
  6
BYBLOCK
 62
     0
  0
LINE
  5
D9
  8
0
  6
BYBLOCK
 62
     0
 10
305.35347739598569
 20
81.555043911606504
 30
0.0
 11
305.35347739598569
 21
79.128095911606465
 31
0.0
  0
LINE
  5
DA
  8
0
  6
BYBLOCK
 62
     0
 10
294.02817139598568
 20
82.398999911606438
 30
0.0
 11
297.52817139598568
 21
82.398999911606438
 31
0.0
  0
LINE
  5
DB
  8
0
  6
BYBLOCK
 62
     0
 10
305.51817139598569
 20
82.398999911606438
 30
0.0
 11
298.87817139598559
 21
82.398999911606438
 31
0.0
  0
POLYLINE
  5
DC
  8
0
  6
BYBLOCK
 62
     0
 66
     1
 10
0.0
 20
0.0
 30
0.0
  0
VERTEX
  5
FF8
  8
0
  6
BYBLOCK
 62
     0
 10
309.8781713959857
 20
85.011837911606449
 30
0.0
  0
VERTEX
  5
FF9
  8
0
  6
BYBLOCK
 62
     0
 10
309.82764139598561
 20
85.006894911606423
 30
0.0
  0
VERTEX
  5
FFA
  8
0
  6
BYBLOCK
 62
     0
 10
309.77711939598561
 20
85.001937911606433
 30
0.0
  0
VERTEX
  5
FFB
  8
0
  6
BYBLOCK
 62
     0
 10
309.72661139598563
 20
84.996954911606494
 30
0.0
  0
VERTEX
  5
FFC
  8
0
  6
BYBLOCK
 62
     0
 10
309.67612739598559
 20
84.991930911606474
 30
0.0
  0
VERTEX
  5
FFD
  8
0
  6
BYBLOCK
 62
     0
 10
309.6256733959857
 20
84.986852911606434
 30
0.0
  0
VERTEX
  5
FFE
  8
0
  6
BYBLOCK
 62
     0
 10
309.5752563959856
 20
84.981707911606463
 30
0.0
  0
VERTEX
  5
FFF
  8
0
  6
BYBLOCK
 62
     0
 10
309.52488639598562
 20
84.976481911606484
 30
0.0
  0
VERTEX
  5
1000
  8
0
  6
BYBLOCK
 62
     0
 10
309.47456839598561
 20
84.971161911606487
 30
0.0
  0
VERTEX
  5
1001
  8
0
  6
BYBLOCK
 62
     0
 10
309.42431139598563
 20
84.965733911606549
 30
0.0
  0
VERTEX
  5
1002
  8
0
  6
BYBLOCK
 62
     0
 10
309.37412239598558
 20
84.960185911606459
 30
0.0
  0
VERTEX
  5
1003
  8
0
  6
BYBLOCK
 62
     0
 10
309.32400939598563
 20
84.954501911606485
 30
0.0
  0
VERTEX
  5
1004
  8
0
  6
BYBLOCK
 62
     0
 10
309.27397939598558
 20
84.948670911606413
 30
0.0
  0
VERTEX
  5
1005
  8
0
  6
BYBLOCK
 62
     0
 10
309.22404039598558
 20
84.942678911606436
 30
0.0
  0
VERTEX
  5
1006
  8
0
  6
BYBLOCK
 62
     0
 10
309.17420039598568
 20
84.936510911606433
 30
0.0
  0
VERTEX
  5
1007
  8
0
  6
BYBLOCK
 62
     0
 10
309.12446639598562
 20
84.930155911606448
 30
0.0
  0
VERTEX
  5
1008
  8
0
  6
BYBLOCK
 62
     0
 10
309.07484639598562
 20
84.923597911606521
 30
0.0
  0
VERTEX
  5
1009
  8
0
  6
BYBLOCK
 62
     0
 10
309.0253473959857
 20
84.916825911606566
 30
0.0
  0
VERTEX
  5
100A
  8
0
  6
BYBLOCK
 62
     0
 10
308.97597639598558
 20
84.909824911606393
 30
0.0
  0
VERTEX
  5
100B
  8
0
  6
BYBLOCK
 62
     0
 10
308.92674339598562
 20
84.902581911606475
 30
0.0
  0
VERTEX
  5
100C
  8
0
  6
BYBLOCK
 62
     0
 10
308.87765339598559
 20
84.895082911606437
 30
0.0
  0
VERTEX
  5
100D
  8
0
  6
BYBLOCK
 62
     0
 10
308.82871539598568
 20
84.887314911606495
 30
0.0
  0
VERTEX
  5
100E
  8
0
  6
BYBLOCK
 62
     0
 10
308.77993639598571
 20
84.879264911606484
 30
0.0
  0
VERTEX
  5
100F
  8
0
  6
BYBLOCK
 62
     0
 10
308.73132339598561
 20
84.870918911606495
 30
0.0
  0
VERTEX
  5
1010
  8
0
  6
BYBLOCK
 62
     0
 10
308.68288639598569
 20
84.862263911606533
 30
0.0
  0
VERTEX
  5
1011
  8
0
  6
BYBLOCK
 62
     0
 10
308.63463039598571
 20
84.853285911606463
 30
0.0
  0
VERTEX
  5
1012
  8
0
  6
BYBLOCK
 62
     0
 10
308.58656339598559
 20
84.843971911606559
 30
0.0
  0
VERTEX
  5
1013
  8
0
  6
BYBLOCK
 62
     0
 10
308.5386943959856
 20
84.834307911606416
 30
0.0
  0
VERTEX
  5
1014
  8
0
  6
BYBLOCK
 62
     0
 10
308.49102939598572
 20
84.824280911606465
 30
0.0
  0
VERTEX
  5
1015
  8
0
  6
BYBLOCK
 62
     0
 10
308.4435773959857
 20
84.813876911606485
 30
0.0
  0
VERTEX
  5
1016
  8
0
  6
BYBLOCK
 62
     0
 10
308.39634439598569
 20
84.803083911606564
 30
0.0
  0
VERTEX
  5
1017
  8
0
  6
BYBLOCK
 62
     0
 10
308.34933539598558
 20
84.791882911606422
 30
0.0
  0
VERTEX
  5
1018
  8
0
  6
BYBLOCK
 62
     0
 10
308.30253739598572
 20
84.780237911606505
 30
0.0
  0
VERTEX
  5
1019
  8
0
  6
BYBLOCK
 62
     0
 10
308.25593539598572
 20
84.768109911606516
 30
0.0
  0
VERTEX
  5
101A
  8
0
  6
BYBLOCK
 62
     0
 10
308.20951439598571
 20
84.755457911606413
 30
0.0
  0
VERTEX
  5
101B
  8
0
  6
BYBLOCK
 62
     0
 10
308.16325639598563
 20
84.742242911606468
 30
0.0
  0
VERTEX
  5
101C
  8
0
  6
BYBLOCK
 62
     0
 10
308.11714739598568
 20
84.728424911606453
 30
0.0
  0
VERTEX
  5
101D
  8
0
  6
BYBLOCK
 62
     0
 10
308.07117139598557
 20
84.71396391160647
 30
0.0
  0
VERTEX
  5
101E
  8
0
  6
BYBLOCK
 62
     0
 10
308.02531239598562
 20
84.698818911606509
 30
0.0
  0
VERTEX
  5
101F
  8
0
  6
BYBLOCK
 62
     0
 10
307.97955439598559
 20
84.682950911606554
 30
0.0
  0
VERTEX
  5
1020
  8
0
  6
BYBLOCK
 62
     0
 10
307.93388139598562
 20
84.666319911606479
 30
0.0
  0
VERTEX
  5
1021
  8
0
  6
BYBLOCK
 62
     0
 10
307.88827739598571
 20
84.648885911606484
 30
0.0
  0
VERTEX
  5
1022
  8
0
  6
BYBLOCK
 62
     0
 10
307.8427283959856
 20
84.630608911606487
 30
0.0
  0
VERTEX
  5
1023
  8
0
  6
BYBLOCK
 62
     0
 10
307.79721639598557
 20
84.611449911606414
 30
0.0
  0
VERTEX
  5
1024
  8
0
  6
BYBLOCK
 62
     0
 10
307.7517273959856
 20
84.591366911606414
 30
0.0
  0
VERTEX
  5
1025
  8
0
  6
BYBLOCK
 62
     0
 10
307.70624439598561
 20
84.570320911606458
 30
0.0
  0
VERTEX
  5
1026
  8
0
  6
BYBLOCK
 62
     0
 10
307.66075239598558
 20
84.548272911606546
 30
0.0
  0
VERTEX
  5
1027
  8
0
  6
BYBLOCK
 62
     0
 10
307.61523439598568
 20
84.525181911606523
 30
0.0
  0
VERTEX
  5
1028
  8
0
  6
BYBLOCK
 62
     0
 10
307.5696763959856
 20
84.501007911606493
 30
0.0
  0
VERTEX
  5
1029
  8
0
  6
BYBLOCK
 62
     0
 10
307.5240613959856
 20
84.475711911606481
 30
0.0
  0
VERTEX
  5
102A
  8
0
  6
BYBLOCK
 62
     0
 10
307.47837339598573
 20
84.449252911606436
 30
0.0
  0
VERTEX
  5
102B
  8
0
  6
BYBLOCK
 62
     0
 10
307.43259739598562
 20
84.421590911606472
 30
0.0
  0
VERTEX
  5
102C
  8
0
  6
BYBLOCK
 62
     0
 10
307.38671739598561
 20
84.392686911606475
 30
0.0
  0
VERTEX
  5
102D
  8
0
  6
BYBLOCK
 62
     0
 10
307.34071839598568
 20
84.362500911606489
 30
0.0
  0
VERTEX
  5
102E
  8
0
  6
BYBLOCK
 62
     0
 10
307.29458239598569
 20
84.330991911606475
 30
0.0
  0
VERTEX
  5
102F
  8
0
  6
BYBLOCK
 62
     0
 10
307.24829539598562
 20
84.298120911606475
 30
0.0
  0
VERTEX
  5
1030
  8
0
  6
BYBLOCK
 62
     0
 10
307.20184139598558
 20
84.263846911606493
 30
0.0
  0
VERTEX
  5
1031
  8
0
  6
BYBLOCK
 62
     0
 10
307.15520439598572
 20
84.228130911606513
 30
0.0
  0
VERTEX
  5
1032
  8
0
  6
BYBLOCK
 62
     0
 10
307.10836939598568
 20
84.190932911606396
 30
0.0
  0
VERTEX
  5
1033
  8
0
  6
BYBLOCK
 62
     0
 10
307.06131839598572
 20
84.152212911606384
 30
0.0
  0
VERTEX
  5
1034
  8
0
  6
BYBLOCK
 62
     0
 10
307.01403839598572
 20
84.111930911606464
 30
0.0
  0
VERTEX
  5
1035
  8
0
  6
BYBLOCK
 62
     0
 10
306.9665153959856
 20
84.070061911606444
 30
0.0
  0
VERTEX
  5
1036
  8
0
  6
BYBLOCK
 62
     0
 10
306.91875439598562
 20
84.026644911606468
 30
0.0
  0
VERTEX
  5
1037
  8
0
  6
BYBLOCK
 62
     0
 10
306.8707643959857
 20
83.981731911606516
 30
0.0
  0
VERTEX
  5
1038
  8
0
  6
BYBLOCK
 62
     0
 10
306.82255239598561
 20
83.935376911606454
 30
0.0
  0
VERTEX
  5
1039
  8
0
  6
BYBLOCK
 62
     0
 10
306.77412739598572
 20
83.887633911606486
 30
0.0
  0
VERTEX
  5
103A
  8
0
  6
BYBLOCK
 62
     0
 10
306.72549639598572
 20
83.838554911606479
 30
0.0
  0
VERTEX
  5
103B
  8
0
  6
BYBLOCK
 62
     0
 10
306.6766693959857
 20
83.788194911606411
 30
0.0
  0
VERTEX
  5
103C
  8
0
  6
BYBLOCK
 62
     0
 10
306.62765339598559
 20
83.736606911606486
 30
0.0
  0
VERTEX
  5
103D
  8
0
  6
BYBLOCK
 62
     0
 10
306.57845739598559
 20
83.683843911606445
 30
0.0
  0
VERTEX
  5
103E
  8
0
  6
BYBLOCK
 62
     0
 10
306.52908839598558
 20
83.629958911606536
 30
0.0
  0
VERTEX
  5
103F
  8
0
  6
BYBLOCK
 62
     0
 10
306.4795563959857
 20
83.575005911606468
 30
0.0
  0
VERTEX
  5
1040
  8
0
  6
BYBLOCK
 62
     0
 10
306.4298673959857
 20
83.519038911606444
 30
0.0
  0
VERTEX
  5
1041
  8
0
  6
BYBLOCK
 62
     0
 10
306.38003139598572
 20
83.46210991160649
 30
0.0
  0
VERTEX
  5
1042
  8
0
  6
BYBLOCK
 62
     0
 10
306.33005539598571
 20
83.40427291160654
 30
0.0
  0
VERTEX
  5
1043
  8
0
  6
BYBLOCK
 62
     0
 10
306.27994839598568
 20
83.345581911606473
 30
0.0
  0
VERTEX
  5
1044
  8
0
  6
BYBLOCK
 62
     0
 10
306.22971839598563
 20
83.286089911606496
 30
0.0
  0
VERTEX
  5
1045
  8
0
  6
BYBLOCK
 62
     0
 10
306.17937339598569
 20
83.225850911606472
 30
0.0
  0
VERTEX
  5
1046
  8
0
  6
BYBLOCK
 62
     0
 10
306.12892239598563
 20
83.164916911606497
 30
0.0
  0
VERTEX
  5
1047
  8
0
  6
BYBLOCK
 62
     0
 10
306.0783723959857
 20
83.103341911606435
 30
0.0
  0
VERTEX
  5
1048
  8
0
  6
BYBLOCK
 62
     0
 10
306.02773139598571
 20
83.041179911606505
 30
0.0
  0
VERTEX
  5
1049
  8
0
  6
BYBLOCK
 62
     0
 10
305.97700939598559
 20
82.978483911606546
 30
0.0
  0
VERTEX
  5
104A
  8
0
  6
BYBLOCK
 62
     0
 10
305.9262133959856
 20
82.915306911606436
 30
0.0
  0
VERTEX
  5
104B
  8
0
  6
BYBLOCK
 62
     0
 10
305.87535139598572
 20
82.85170291160648
 30
0.0
  0
VERTEX
  5
104C
  8
0
  6
BYBLOCK
 62
     0
 10
305.82443239598558
 20
82.78772491160646
 30
0.0
  0
VERTEX
  5
104D
  8
0
  6
BYBLOCK
 62
     0
 10
305.77346439598563
 20
82.723426911606452
 30
0.0
  0
VERTEX
  5
104E
  8
0
  6
BYBLOCK
 62
     0
 10
305.72245539598561
 20
82.658861911606436
 30
0.0
  0
VERTEX
  5
104F
  8
0
  6
BYBLOCK
 62
     0
 10
305.67141239598573
 20
82.594082911606506
 30
0.0
  0
VERTEX
  5
1050
  8
0
  6
BYBLOCK
 62
     0
 10
305.62034639598568
 20
82.529143911606525
 30
0.0
  0
VERTEX
  5
1051
  8
0
  6
BYBLOCK
 62
     0
 10
305.56926239598562
 20
82.46409891160647
 30
0.0
  0
VERTEX
  5
1052
  8
0
  6
BYBLOCK
 62
     0
 10
305.51817139598569
 20
82.398999911606438
 30
0.0
  0
SEQEND
  5
1053
  8
0
  6
BYBLOCK
 62
     0
  0
ARC
  5
DD
  8
0
  6
BYBLOCK
 62
     0
 10
309.8781713959857
 20
83.011837911606435
 30
0.0
 40
2.0
 50
90.0
 51
180.0
  0
LINE
  5
DE
  8
0
  6
BYBLOCK
 62
     0
 10
307.8781713959857
 20
83.011837911606435
 30
0.0
 11
307.8781713959857
 21
81.898999911606424
 31
0.0
  0
LINE
  5
DF
  8
0
  6
BYBLOCK
 62
     0
 10
262.75014239598562
 20
224.49031591160639
 30
0.0
 11
265.07159939598569
 21
137.62408791160641
 31
0.0
  0
POLYLINE
  5
E0
  8
0
  6
BYBLOCK
 62
     0
 66
     1
 10
0.0
 20
0.0
 30
0.0
  0
VERTEX
  5
1054
  8
0
  6
BYBLOCK
 62
     0
 10
271.52817139598568
 20
227.8333289116064
 30
0.0
  0
VERTEX
  5
1055
  8
0
  6
BYBLOCK
 62
     0
 10
271.14076939598561
 20
228.60224791160641
 30
0.0
  0
VERTEX
  5
1056
  8
0
  6
BYBLOCK
 62
     0
 10
269.9903333959856
 20
229.34780391160641
 30
0.0
  0
VERTEX
  5
1057
  8
0
  6
BYBLOCK
 62
     0
 10
268.11181939598561
 20
230.04734291160651
 30
0.0
  0
VERTEX
  5
1058
  8
0
  6
BYBLOCK
 62
     0
 10
265.56230439598562
 20
230.67960991160641
 30
0.0
  0
VERTEX
  5
1059
  8
0
  6
BYBLOCK
 62
     0
 10
262.41925539598572
 20
231.2253949116064
 30
0.0
  0
VERTEX
  5
105A
  8
0
  6
BYBLOCK
 62
     0
 10
258.77817139598568
 20
231.66811391160641
 30
0.0
  0
VERTEX
  5
105B
  8
0
  6
BYBLOCK
 62
     0
 10
254.74968539598561
 20
231.99431391160641
 30
0.0
  0
VERTEX
  5
105C
  8
0
  6
BYBLOCK
 62
     0
 10
250.4562003959856
 20
232.1940849116065
 30
0.0
  0
VERTEX
  5
105D
  8
0
  6
BYBLOCK
 62
     0
 10
246.02817139598571
 20
232.2613569116065
 30
0.0
  0
VERTEX
  5
105E
  8
0
  6
BYBLOCK
 62
     0
 10
241.6001423959857
 20
232.1940849116065
 30
0.0
  0
VERTEX
  5
105F
  8
0
  6
BYBLOCK
 62
     0
 10
237.3066573959857
 20
231.99431391160641
 30
0.0
  0
VERTEX
  5
1060
  8
0
  6
BYBLOCK
 62
     0
 10
233.27817139598559
 20
231.66811391160641
 30
0.0
  0
VERTEX
  5
1061
  8
0
  6
BYBLOCK
 62
     0
 10
229.63708739598559
 20
231.2253949116064
 30
0.0
  0
VERTEX
  5
1062
  8
0
  6
BYBLOCK
 62
     0
 10
226.4940383959856
 20
230.67960991160641
 30
0.0
  0
VERTEX
  5
1063
  8
0
  6
BYBLOCK
 62
     0
 10
223.9445233959857
 20
230.04734291160651
 30
0.0
  0
VERTEX
  5
1064
  8
0
  6
BYBLOCK
 62
     0
 10
222.06600939598559
 20
229.34780391160641
 30
0.0
  0
VERTEX
  5
1065
  8
0
  6
BYBLOCK
 62
     0
 10
220.9155733959856
 20
228.60224791160641
 30
0.0
  0
VERTEX
  5
1066
  8
0
  6
BYBLOCK
 62
     0
 10
220.52817139598559
 20
227.8333289116064
 30
0.0
  0
SEQEND
  5
1067
  8
0
  6
BYBLOCK
 62
     0
  0
POLYLINE
  5
E1
  8
0
  6
BYBLOCK
 62
     0
 66
     1
 10
0.0
 20
0.0
 30
0.0
  0
VERTEX
  5
1068
  8
0
  6
BYBLOCK
 62
     0
 10
220.52817139598559
 20
227.8333289116064
 30
0.0
  0
VERTEX
  5
1069
  8
0
  6
BYBLOCK
 62
     0
 10
220.9155733959856
 20
227.0644099116065
 30
0.0
  0
VERTEX
  5
106A
  8
0
  6
BYBLOCK
 62
     0
 10
222.06600939598559
 20
226.3188539116064
 30
0.0
  0
VERTEX
  5
106B
  8
0
  6
BYBLOCK
 62
     0
 10
223.9445233959857
 20
225.61931391160641
 30
0.0
  0
VERTEX
  5
106C
  8
0
  6
BYBLOCK
 62
     0
 10
226.4940383959856
 20
224.98704691160651
 30
0.0
  0
VERTEX
  5
106D
  8
0
  6
BYBLOCK
 62
     0
 10
229.63708739598559
 20
224.44126191160649
 30
0.0
  0
VERTEX
  5
106E
  8
0
  6
BYBLOCK
 62
     0
 10
233.27817139598559
 20
223.99854291160639
 30
0.0
  0
VERTEX
  5
106F
  8
0
  6
BYBLOCK
 62
     0
 10
237.3066573959857
 20
223.67234291160639
 30
0.0
  0
VERTEX
  5
1070
  8
0
  6
BYBLOCK
 62
     0
 10
241.6001423959857
 20
223.47257191160651
 30
0.0
  0
VERTEX
  5
1071
  8
0
  6
BYBLOCK
 62
     0
 10
246.02817139598571
 20
223.40529991160639
 30
0.0
  0
VERTEX
  5
1072
  8
0
  6
BYBLOCK
 62
     0
 10
250.4562003959856
 20
223.47257191160651
 30
0.0
  0
VERTEX
  5
1073
  8
0
  6
BYBLOCK
 62
     0
 10
254.74968539598561
 20
223.67234291160639
 30
0.0
  0
VERTEX
  5
1074
  8
0
  6
BYBLOCK
 62
     0
 10
258.77817139598568
 20
223.99854291160639
 30
0.0
  0
VERTEX
  5
1075
  8
0
  6
BYBLOCK
 62
     0
 10
262.41925539598572
 20
224.44126191160649
 30
0.0
  0
VERTEX
  5
1076
  8
0
  6
BYBLOCK
 62
     0
 10
265.56230439598562
 20
224.98704691160651
 30
0.0
  0
VERTEX
  5
1077
  8
0
  6
BYBLOCK
 62
     0
 10
268.11181939598561
 20
225.61931391160641
 30
0.0
  0
VERTEX
  5
1078
  8
0
  6
BYBLOCK
 62
     0
 10
269.9903333959856
 20
226.3188539116064
 30
0.0
  0
VERTEX
  5
1079
  8
0
  6
BYBLOCK
 62
     0
 10
271.14076939598561
 20
227.0644099116065
 30
0.0
  0
VERTEX
  5
107A
  8
0
  6
BYBLOCK
 62
     0
 10
271.52817139598568
 20
227.8333289116064
 30
0.0
  0
SEQEND
  5
107B
  8
0
  6
BYBLOCK
 62
     0
  0
POLYLINE
  5
E2
  8
0
  6
BYBLOCK
 62
     0
 66
     1
 10
0.0
 20
0.0
 30
0.0
  0
VERTEX
  5
107C
  8
0
  6
BYBLOCK
 62
     0
 10
273.6158303959856
 20
241.2594969116065
 30
0.0
  0
VERTEX
  5
107D
  8
0
  6
BYBLOCK
 62
     0
 10
273.19671139598569
 20
241.67637491160639
 30
0.0
  0
VERTEX
  5
107E
  8
0
  6
BYBLOCK
 62
     0
 10
271.95209139598558
 20
242.08058691160639
 30
0.0
  0
VERTEX
  5
107F
  8
0
  6
BYBLOCK
 62
     0
 10
269.91978539598563
 20
242.4598499116064
 30
0.0
  0
VERTEX
  5
1080
  8
0
  6
BYBLOCK
 62
     0
 10
267.16154439598557
 20
242.8026419116064
 30
0.0
  0
VERTEX
  5
1081
  8
0
  6
BYBLOCK
 62
     0
 10
263.76117639598561
 20
243.09854491160641
 30
0.0
  0
VERTEX
  5
1082
  8
0
  6
BYBLOCK
 62
     0
 10
259.82200039598558
 20
243.33856991160641
 30
0.0
  0
VERTEX
  5
1083
  8
0
  6
BYBLOCK
 62
     0
 10
255.4637063959857
 20
243.5154239116064
 30
0.0
  0
VERTEX
  5
1084
  8
0
  6
BYBLOCK
 62
     0
 10
250.81871839598571
 20
243.6237319116064
 30
0.0
  0
VERTEX
  5
1085
  8
0
  6
BYBLOCK
 62
     0
 10
246.02817139598571
 20
243.6602039116064
 30
0.0
  0
VERTEX
  5
1086
  8
0
  6
BYBLOCK
 62
     0
 10
241.2376243959857
 20
243.6237319116064
 30
0.0
  0
VERTEX
  5
1087
  8
0
  6
BYBLOCK
 62
     0
 10
236.59263639598561
 20
243.5154239116064
 30
0.0
  0
VERTEX
  5
1088
  8
0
  6
BYBLOCK
 62
     0
 10
232.23434139598569
 20
243.33856991160641
 30
0.0
  0
VERTEX
  5
1089
  8
0
  6
BYBLOCK
 62
     0
 10
228.29516639598569
 20
243.09854491160641
 30
0.0
  0
VERTEX
  5
108A
  8
0
  6
BYBLOCK
 62
     0
 10
224.89479839598559
 20
242.8026419116064
 30
0.0
  0
VERTEX
  5
108B
  8
0
  6
BYBLOCK
 62
     0
 10
222.1365573959857
 20
242.4598499116064
 30
0.0
  0
VERTEX
  5
108C
  8
0
  6
BYBLOCK
 62
     0
 10
220.10425139598561
 20
242.08058691160639
 30
0.0
  0
VERTEX
  5
108D
  8
0
  6
BYBLOCK
 62
     0
 10
218.85963139598559
 20
241.67637491160639
 30
0.0
  0
VERTEX
  5
108E
  8
0
  6
BYBLOCK
 62
     0
 10
218.44051239598559
 20
241.2594969116065
 30
0.0
  0
SEQEND
  5
108F
  8
0
  6
BYBLOCK
 62
     0
  0
POLYLINE
  5
E3
  8
0
  6
BYBLOCK
 62
     0
 66
     1
 10
0.0
 20
0.0
 30
0.0
  0
VERTEX
  5
1090
  8
0
  6
BYBLOCK
 62
     0
 10
273.6158303959856
 20
240.7594969116065
 30
0.0
  0
VERTEX
  5
1091
  8
0
  6
BYBLOCK
 62
     0
 10
273.19671139598569
 20
241.17637491160639
 30
0.0
  0
VERTEX
  5
1092
  8
0
  6
BYBLOCK
 62
     0
 10
271.95209139598558
 20
241.58058691160639
 30
0.0
  0
VERTEX
  5
1093
  8
0
  6
BYBLOCK
 62
     0
 10
269.91978539598563
 20
241.9598499116064
 30
0.0
  0
VERTEX
  5
1094
  8
0
  6
BYBLOCK
 62
     0
 10
267.16154439598557
 20
242.3026419116064
 30
0.0
  0
VERTEX
  5
1095
  8
0
  6
BYBLOCK
 62
     0
 10
263.76117639598561
 20
242.5985449116065
 30
0.0
  0
VERTEX
  5
1096
  8
0
  6
BYBLOCK
 62
     0
 10
259.82200039598558
 20
242.83856991160641
 30
0.0
  0
VERTEX
  5
1097
  8
0
  6
BYBLOCK
 62
     0
 10
255.4637063959857
 20
243.01542391160649
 30
0.0
  0
VERTEX
  5
1098
  8
0
  6
BYBLOCK
 62
     0
 10
250.81871839598571
 20
243.1237319116064
 30
0.0
  0
VERTEX
  5
1099
  8
0
  6
BYBLOCK
 62
     0
 10
246.02817139598571
 20
243.1602039116064
 30
0.0
  0
VERTEX
  5
109A
  8
0
  6
BYBLOCK
 62
     0
 10
241.2376243959857
 20
243.1237319116064
 30
0.0
  0
VERTEX
  5
109B
  8
0
  6
BYBLOCK
 62
     0
 10
236.59263639598561
 20
243.01542391160649
 30
0.0
  0
VERTEX
  5
109C
  8
0
  6
BYBLOCK
 62
     0
 10
232.23434139598569
 20
242.83856991160641
 30
0.0
  0
VERTEX
  5
109D
  8
0
  6
BYBLOCK
 62
     0
 10
228.29516639598569
 20
242.5985449116065
 30
0.0
  0
VERTEX
  5
109E
  8
0
  6
BYBLOCK
 62
     0
 10
224.89479839598559
 20
242.3026419116064
 30
0.0
  0
VERTEX
  5
109F
  8
0
  6
BYBLOCK
 62
     0
 10
222.1365573959857
 20
241.9598499116064
 30
0.0
  0
VERTEX
  5
10A0
  8
0
  6
BYBLOCK
 62
     0
 10
220.10425139598561
 20
241.58058691160639
 30
0.0
  0
VERTEX
  5
10A1
  8
0
  6
BYBLOCK
 62
     0
 10
218.85963139598559
 20
241.17637491160639
 30
0.0
  0
VERTEX
  5
10A2
  8
0
  6
BYBLOCK
 62
     0
 10
218.44051239598559
 20
240.7594969116065
 30
0.0
  0
SEQEND
  5
10A3
  8
0
  6
BYBLOCK
 62
     0
  0
POLYLINE
  5
E4
  8
0
  6
BYBLOCK
 62
     0
 66
     1
 10
0.0
 20
0.0
 30
0.0
 70
     1
  0
VERTEX
  5
10A4
  8
0
  6
BYBLOCK
 62
     0
 10
263.52817139598568
 20
227.8333289116064
 30
0.0
  0
VERTEX
  5
10A5
  8
0
  6
BYBLOCK
 62
     0
 10
263.2623073959856
 20
228.3610179116065
 30
0.0
  0
VERTEX
  5
10A6
  8
0
  6
BYBLOCK
 62
     0
 10
262.47279239598572
 20
228.87267391160651
 30
0.0
  0
VERTEX
  5
10A7
  8
0
  6
BYBLOCK
 62
     0
 10
261.18361639598572
 20
229.3527499116064
 30
0.0
  0
VERTEX
  5
10A8
  8
0
  6
BYBLOCK
 62
     0
 10
259.43394939598562
 20
229.78665891160651
 30
0.0
  0
VERTEX
  5
10A9
  8
0
  6
BYBLOCK
 62
     0
 10
257.27695439598563
 20
230.1612169116064
 30
0.0
  0
VERTEX
  5
10AA
  8
0
  6
BYBLOCK
 62
     0
 10
254.77817139598571
 20
230.46504391160639
 30
0.0
  0
VERTEX
  5
10AB
  8
0
  6
BYBLOCK
 62
     0
 10
252.0135243959856
 20
230.68890691160649
 30
0.0
  0
VERTEX
  5
10AC
  8
0
  6
BYBLOCK
 62
     0
 10
249.06701439598569
 20
230.8260049116065
 30
0.0
  0
VERTEX
  5
10AD
  8
0
  6
BYBLOCK
 62
     0
 10
246.02817139598571
 20
230.8721719116065
 30
0.0
  0
VERTEX
  5
10AE
  8
0
  6
BYBLOCK
 62
     0
 10
242.98932839598561
 20
230.8260049116065
 30
0.0
  0
VERTEX
  5
10AF
  8
0
  6
BYBLOCK
 62
     0
 10
240.04281839598559
 20
230.68890691160649
 30
0.0
  0
VERTEX
  5
10B0
  8
0
  6
BYBLOCK
 62
     0
 10
237.27817139598571
 20
230.46504391160639
 30
0.0
  0
VERTEX
  5
10B1
  8
0
  6
BYBLOCK
 62
     0
 10
234.77938839598559
 20
230.1612169116064
 30
0.0
  0
VERTEX
  5
10B2
  8
0
  6
BYBLOCK
 62
     0
 10
232.6223933959856
 20
229.78665891160651
 30
0.0
  0
VERTEX
  5
10B3
  8
0
  6
BYBLOCK
 62
     0
 10
230.87272639598561
 20
229.3527499116064
 30
0.0
  0
VERTEX
  5
10B4
  8
0
  6
BYBLOCK
 62
     0
 10
229.58355039598561
 20
228.87267391160651
 30
0.0
  0
VERTEX
  5
10B5
  8
0
  6
BYBLOCK
 62
     0
 10
228.7940353959857
 20
228.3610179116065
 30
0.0
  0
VERTEX
  5
10B6
  8
0
  6
BYBLOCK
 62
     0
 10
228.52817139598559
 20
227.8333289116064
 30
0.0
  0
VERTEX
  5
10B7
  8
0
  6
BYBLOCK
 62
     0
 10
228.7940353959857
 20
227.30563891160639
 30
0.0
  0
VERTEX
  5
10B8
  8
0
  6
BYBLOCK
 62
     0
 10
229.58355039598561
 20
226.79398291160641
 30
0.0
  0
VERTEX
  5
10B9
  8
0
  6
BYBLOCK
 62
     0
 10
230.87272639598561
 20
226.31390691160649
 30
0.0
  0
VERTEX
  5
10BA
  8
0
  6
BYBLOCK
 62
     0
 10
232.6223933959856
 20
225.87999791160641
 30
0.0
  0
VERTEX
  5
10BB
  8
0
  6
BYBLOCK
 62
     0
 10
234.77938839598559
 20
225.5054399116064
 30
0.0
  0
VERTEX
  5
10BC
  8
0
  6
BYBLOCK
 62
     0
 10
237.27817139598571
 20
225.2016129116063
 30
0.0
  0
VERTEX
  5
10BD
  8
0
  6
BYBLOCK
 62
     0
 10
240.04281839598559
 20
224.9777499116064
 30
0.0
  0
VERTEX
  5
10BE
  8
0
  6
BYBLOCK
 62
     0
 10
242.98932839598561
 20
224.8406519116065
 30
0.0
  0
VERTEX
  5
10BF
  8
0
  6
BYBLOCK
 62
     0
 10
246.02817139598571
 20
224.79448591160639
 30
0.0
  0
VERTEX
  5
10C0
  8
0
  6
BYBLOCK
 62
     0
 10
249.06701439598569
 20
224.8406519116065
 30
0.0
  0
VERTEX
  5
10C1
  8
0
  6
BYBLOCK
 62
     0
 10
252.0135243959856
 20
224.9777499116064
 30
0.0
  0
VERTEX
  5
10C2
  8
0
  6
BYBLOCK
 62
     0
 10
254.77817139598571
 20
225.2016129116063
 30
0.0
  0
VERTEX
  5
10C3
  8
0
  6
BYBLOCK
 62
     0
 10
257.27695439598563
 20
225.5054399116064
 30
0.0
  0
VERTEX
  5
10C4
  8
0
  6
BYBLOCK
 62
     0
 10
259.43394939598562
 20
225.87999791160641
 30
0.0
  0
VERTEX
  5
10C5
  8
0
  6
BYBLOCK
 62
     0
 10
261.18361639598572
 20
226.31390691160649
 30
0.0
  0
VERTEX
  5
10C6
  8
0
  6
BYBLOCK
 62
     0
 10
262.47279239598572
 20
226.79398291160641
 30
0.0
  0
VERTEX
  5
10C7
  8
0
  6
BYBLOCK
 62
     0
 10
263.2623073959856
 20
227.30563891160639
 30
0.0
  0
SEQEND
  5
10C8
  8
0
  6
BYBLOCK
 62
     0
  0
LINE
  5
E5
  8
0
  6
BYBLOCK
 62
     0
 10
262.84863839598557
 20
218.84752091160641
 30
0.0
 11
268.02817139598568
 21
218.84752091160641
 31
0.0
  0
LINE
  5
E6
  8
0
  6
BYBLOCK
 62
     0
 10
262.90359539598558
 20
215.6990069116064
 30
0.0
 11
267.40143839598562
 21
215.6990069116064
 31
0.0
  0
LINE
  5
E7
  8
0
  6
BYBLOCK
 62
     0
 10
229.3062003959856
 20
224.49031591160639
 30
0.0
 11
226.98474239598559
 21
137.62408791160641
 31
0.0
  0
LINE
  5
E8
  8
0
  6
BYBLOCK
 62
     0
 10
222.77817139598559
 20
214.3902899116064
 30
0.0
 11
220.0282273959856
 21
171.49900691160639
 31
0.0
  0
LINE
  5
E9
  8
0
  6
BYBLOCK
 62
     0
 10
220.02817139598559
 20
170.3989969116065
 30
0.0
 11
227.86063639598561
 21
170.3989969116065
 31
0.0
  0
LINE
  5
EA
  8
0
  6
BYBLOCK
 62
     0
 10
227.8820163959856
 20
171.1990069116064
 30
0.0
 11
220.32822739598561
 21
171.1990069116064
 31
0.0
  0
LINE
  5
EB
  8
0
  6
BYBLOCK
 62
     0
 10
222.77817139598559
 20
171.1990069116064
 30
0.0
 11
222.77817139598559
 21
170.3989969116065
 31
0.0
  0
LINE
  5
EC
  8
0
  6
BYBLOCK
 62
     0
 10
220.32822739598561
 20
171.1990069116064
 30
0.0
 11
220.0282273959856
 21
171.49900691160639
 31
0.0
  0
POLYLINE
  5
ED
  8
0
  6
BYBLOCK
 62
     0
 66
     1
 10
0.0
 20
0.0
 30
0.0
 70
     1
  0
VERTEX
  5
10C9
  8
0
  6
BYBLOCK
 62
     0
 10
252.27817139598571
 20
228.81812991160649
 30
0.0
  0
VERTEX
  5
10CA
  8
0
  6
BYBLOCK
 62
     0
 10
252.18321939598559
 20
229.0065899116064
 30
0.0
  0
VERTEX
  5
10CB
  8
0
  6
BYBLOCK
 62
     0
 10
251.90125039598561
 20
229.1893229116065
 30
0.0
  0
VERTEX
  5
10CC
  8
0
  6
BYBLOCK
 62
     0
 10
251.44083039598561
 20
229.36077691160651
 30
0.0
  0
VERTEX
  5
10CD
  8
0
  6
BYBLOCK
 62
     0
 10
250.81594939598571
 20
229.51574391160639
 30
0.0
  0
VERTEX
  5
10CE
  8
0
  6
BYBLOCK
 62
     0
 10
250.04559439598569
 20
229.6495139116065
 30
0.0
  0
VERTEX
  5
10CF
  8
0
  6
BYBLOCK
 62
     0
 10
249.15317139598571
 20
229.75802191160651
 30
0.0
  0
VERTEX
  5
10D0
  8
0
  6
BYBLOCK
 62
     0
 10
248.16579739598561
 20
229.83797291160641
 30
0.0
  0
VERTEX
  5
10D1
  8
0
  6
BYBLOCK
 62
     0
 10
247.1134723959857
 20
229.8869359116064
 30
0.0
  0
VERTEX
  5
10D2
  8
0
  6
BYBLOCK
 62
     0
 10
246.02817139598571
 20
229.9034239116065
 30
0.0
  0
VERTEX
  5
10D3
  8
0
  6
BYBLOCK
 62
     0
 10
244.94287039598561
 20
229.8869359116064
 30
0.0
  0
VERTEX
  5
10D4
  8
0
  6
BYBLOCK
 62
     0
 10
243.89054539598561
 20
229.83797291160641
 30
0.0
  0
VERTEX
  5
10D5
  8
0
  6
BYBLOCK
 62
     0
 10
242.90317139598571
 20
229.75802191160651
 30
0.0
  0
VERTEX
  5
10D6
  8
0
  6
BYBLOCK
 62
     0
 10
242.01074839598559
 20
229.6495139116065
 30
0.0
  0
VERTEX
  5
10D7
  8
0
  6
BYBLOCK
 62
     0
 10
241.24039339598571
 20
229.51574391160639
 30
0.0
  0
VERTEX
  5
10D8
  8
0
  6
BYBLOCK
 62
     0
 10
240.61551239598569
 20
229.36077691160651
 30
0.0
  0
VERTEX
  5
10D9
  8
0
  6
BYBLOCK
 62
     0
 10
240.1550923959856
 20
229.1893229116065
 30
0.0
  0
VERTEX
  5
10DA
  8
0
  6
BYBLOCK
 62
     0
 10
239.8731233959856
 20
229.0065899116064
 30
0.0
  0
VERTEX
  5
10DB
  8
0
  6
BYBLOCK
 62
     0
 10
239.77817139598571
 20
228.81812991160649
 30
0.0
  0
VERTEX
  5
10DC
  8
0
  6
BYBLOCK
 62
     0
 10
239.8731233959856
 20
228.62967091160641
 30
0.0
  0
VERTEX
  5
10DD
  8
0
  6
BYBLOCK
 62
     0
 10
240.1550923959856
 20
228.4469379116064
 30
0.0
  0
VERTEX
  5
10DE
  8
0
  6
BYBLOCK
 62
     0
 10
240.61551239598569
 20
228.2754839116065
 30
0.0
  0
VERTEX
  5
10DF
  8
0
  6
BYBLOCK
 62
     0
 10
241.24039339598571
 20
228.1205169116063
 30
0.0
  0
VERTEX
  5
10E0
  8
0
  6
BYBLOCK
 62
     0
 10
242.01074839598559
 20
227.98674691160639
 30
0.0
  0
VERTEX
  5
10E1
  8
0
  6
BYBLOCK
 62
     0
 10
242.90317139598571
 20
227.87823791160639
 30
0.0
  0
VERTEX
  5
10E2
  8
0
  6
BYBLOCK
 62
     0
 10
243.89054539598561
 20
227.79828791160639
 30
0.0
  0
VERTEX
  5
10E3
  8
0
  6
BYBLOCK
 62
     0
 10
244.94287039598561
 20
227.74932491160641
 30
0.0
  0
VERTEX
  5
10E4
  8
0
  6
BYBLOCK
 62
     0
 10
246.02817139598571
 20
227.7328369116064
 30
0.0
  0
VERTEX
  5
10E5
  8
0
  6
BYBLOCK
 62
     0
 10
247.1134723959857
 20
227.74932491160641
 30
0.0
  0
VERTEX
  5
10E6
  8
0
  6
BYBLOCK
 62
     0
 10
248.16579739598561
 20
227.79828791160639
 30
0.0
  0
VERTEX
  5
10E7
  8
0
  6
BYBLOCK
 62
     0
 10
249.15317139598571
 20
227.87823791160639
 30
0.0
  0
VERTEX
  5
10E8
  8
0
  6
BYBLOCK
 62
     0
 10
250.04559439598569
 20
227.98674691160639
 30
0.0
  0
VERTEX
  5
10E9
  8
0
  6
BYBLOCK
 62
     0
 10
250.81594939598571
 20
228.1205169116063
 30
0.0
  0
VERTEX
  5
10EA
  8
0
  6
BYBLOCK
 62
     0
 10
251.44083039598561
 20
228.2754839116065
 30
0.0
  0
VERTEX
  5
10EB
  8
0
  6
BYBLOCK
 62
     0
 10
251.90125039598561
 20
228.4469379116064
 30
0.0
  0
VERTEX
  5
10EC
  8
0
  6
BYBLOCK
 62
     0
 10
252.18321939598559
 20
228.62967091160641
 30
0.0
  0
SEQEND
  5
10ED
  8
0
  6
BYBLOCK
 62
     0
  0
POLYLINE
  5
EE
  8
0
  6
BYBLOCK
 62
     0
 66
     1
 10
0.0
 20
0.0
 30
0.0
 70
     1
  0
VERTEX
  5
10EE
  8
0
  6
BYBLOCK
 62
     0
 10
253.52817139598571
 20
228.81812991160649
 30
0.0
  0
VERTEX
  5
10EF
  8
0
  6
BYBLOCK
 62
     0
 10
253.41422939598559
 20
229.0442819116065
 30
0.0
  0
VERTEX
  5
10F0
  8
0
  6
BYBLOCK
 62
     0
 10
253.0758663959856
 20
229.2635609116065
 30
0.0
  0
VERTEX
  5
10F1
  8
0
  6
BYBLOCK
 62
     0
 10
252.5233623959856
 20
229.4693069116064
 30
0.0
  0
VERTEX
  5
10F2
  8
0
  6
BYBLOCK
 62
     0
 10
251.77350439598561
 20
229.65526591160639
 30
0.0
  0
VERTEX
  5
10F3
  8
0
  6
BYBLOCK
 62
     0
 10
250.8490783959856
 20
229.8157899116064
 30
0.0
  0
VERTEX
  5
10F4
  8
0
  6
BYBLOCK
 62
     0
 10
249.77817139598571
 20
229.94600091160649
 30
0.0
  0
VERTEX
  5
10F5
  8
0
  6
BYBLOCK
 62
     0
 10
248.59332239598569
 20
230.0419409116065
 30
0.0
  0
VERTEX
  5
10F6
  8
0
  6
BYBLOCK
 62
     0
 10
247.33053239598561
 20
230.10069691160649
 30
0.0
  0
VERTEX
  5
10F7
  8
0
  6
BYBLOCK
 62
     0
 10
246.02817139598571
 20
230.12048291160639
 30
0.0
  0
VERTEX
  5
10F8
  8
0
  6
BYBLOCK
 62
     0
 10
244.7258103959856
 20
230.10069691160649
 30
0.0
  0
VERTEX
  5
10F9
  8
0
  6
BYBLOCK
 62
     0
 10
243.46302039598561
 20
230.0419409116065
 30
0.0
  0
VERTEX
  5
10FA
  8
0
  6
BYBLOCK
 62
     0
 10
242.27817139598571
 20
229.94600091160649
 30
0.0
  0
VERTEX
  5
10FB
  8
0
  6
BYBLOCK
 62
     0
 10
241.2072643959857
 20
229.8157899116064
 30
0.0
  0
VERTEX
  5
10FC
  8
0
  6
BYBLOCK
 62
     0
 10
240.28283839598561
 20
229.65526591160639
 30
0.0
  0
VERTEX
  5
10FD
  8
0
  6
BYBLOCK
 62
     0
 10
239.53298039598559
 20
229.4693069116064
 30
0.0
  0
VERTEX
  5
10FE
  8
0
  6
BYBLOCK
 62
     0
 10
238.98047639598559
 20
229.2635609116065
 30
0.0
  0
VERTEX
  5
10FF
  8
0
  6
BYBLOCK
 62
     0
 10
238.6421133959856
 20
229.0442819116065
 30
0.0
  0
VERTEX
  5
1100
  8
0
  6
BYBLOCK
 62
     0
 10
238.52817139598559
 20
228.81812991160649
 30
0.0
  0
VERTEX
  5
1101
  8
0
  6
BYBLOCK
 62
     0
 10
238.6421133959856
 20
228.59197891160639
 30
0.0
  0
VERTEX
  5
1102
  8
0
  6
BYBLOCK
 62
     0
 10
238.98047639598559
 20
228.37269991160639
 30
0.0
  0
VERTEX
  5
1103
  8
0
  6
BYBLOCK
 62
     0
 10
239.53298039598559
 20
228.16695391160641
 30
0.0
  0
VERTEX
  5
1104
  8
0
  6
BYBLOCK
 62
     0
 10
240.28283839598561
 20
227.98099391160639
 30
0.0
  0
VERTEX
  5
1105
  8
0
  6
BYBLOCK
 62
     0
 10
241.2072643959857
 20
227.82047091160641
 30
0.0
  0
VERTEX
  5
1106
  8
0
  6
BYBLOCK
 62
     0
 10
242.27817139598571
 20
227.69025991160649
 30
0.0
  0
VERTEX
  5
1107
  8
0
  6
BYBLOCK
 62
     0
 10
243.46302039598561
 20
227.59431891160639
 30
0.0
  0
VERTEX
  5
1108
  8
0
  6
BYBLOCK
 62
     0
 10
244.7258103959856
 20
227.5355639116064
 30
0.0
  0
VERTEX
  5
1109
  8
0
  6
BYBLOCK
 62
     0
 10
246.02817139598571
 20
227.51577791160651
 30
0.0
  0
VERTEX
  5
110A
  8
0
  6
BYBLOCK
 62
     0
 10
247.33053239598561
 20
227.5355639116064
 30
0.0
  0
VERTEX
  5
110B
  8
0
  6
BYBLOCK
 62
     0
 10
248.59332239598569
 20
227.59431891160639
 30
0.0
  0
VERTEX
  5
110C
  8
0
  6
BYBLOCK
 62
     0
 10
249.77817139598571
 20
227.69025991160649
 30
0.0
  0
VERTEX
  5
110D
  8
0
  6
BYBLOCK
 62
     0
 10
250.8490783959856
 20
227.82047091160641
 30
0.0
  0
VERTEX
  5
110E
  8
0
  6
BYBLOCK
 62
     0
 10
251.77350439598561
 20
227.98099391160639
 30
0.0
  0
VERTEX
  5
110F
  8
0
  6
BYBLOCK
 62
     0
 10
252.5233623959856
 20
228.16695391160641
 30
0.0
  0
VERTEX
  5
1110
  8
0
  6
BYBLOCK
 62
     0
 10
253.0758663959856
 20
228.37269991160639
 30
0.0
  0
VERTEX
  5
1111
  8
0
  6
BYBLOCK
 62
     0
 10
253.41422939598559
 20
228.59197891160639
 30
0.0
  0
SEQEND
  5
1112
  8
0
  6
BYBLOCK
 62
     0
  0
POLYLINE
  5
EF
  8
0
  6
BYBLOCK
 62
     0
 66
     1
 10
0.0
 20
0.0
 30
0.0
  0
VERTEX
  5
1113
  8
0
  6
BYBLOCK
 62
     0
 10
229.81303439598571
 20
221.58739891160641
 30
0.0
  0
VERTEX
  5
1114
  8
0
  6
BYBLOCK
 62
     0
 10
230.7530873959856
 20
219.2900129116064
 30
0.0
  0
VERTEX
  5
1115
  8
0
  6
BYBLOCK
 62
     0
 10
232.15726739598571
 20
217.16365191160651
 30
0.0
  0
VERTEX
  5
1116
  8
0
  6
BYBLOCK
 62
     0
 10
233.98290639598559
 20
215.2729239116064
 30
0.0
  0
VERTEX
  5
1117
  8
0
  6
BYBLOCK
 62
     0
 10
236.1745353959856
 20
213.67527691160649
 30
0.0
  0
VERTEX
  5
1118
  8
0
  6
BYBLOCK
 62
     0
 10
238.6655623959856
 20
212.4192569116064
 30
0.0
  0
VERTEX
  5
1119
  8
0
  6
BYBLOCK
 62
     0
 10
241.3802983959857
 20
211.54302591160641
 30
0.0
  0
VERTEX
  5
111A
  8
0
  6
BYBLOCK
 62
     0
 10
244.23625739598569
 20
211.0732079116064
 30
0.0
  0
VERTEX
  5
111B
  8
0
  6
BYBLOCK
 62
     0
 10
247.1466633959856
 20
211.02407791160641
 30
0.0
  0
VERTEX
  5
111C
  8
0
  6
BYBLOCK
 62
     0
 10
250.02308339598559
 20
211.3971289116065
 30
0.0
  0
VERTEX
  5
111D
  8
0
  6
BYBLOCK
 62
     0
 10
252.77812139598561
 20
212.1810259116065
 30
0.0
  0
VERTEX
  5
111E
  8
0
  6
BYBLOCK
 62
     0
 10
255.32806439598559
 20
213.35195091160651
 30
0.0
  0
VERTEX
  5
111F
  8
0
  6
BYBLOCK
 62
     0
 10
257.59543539598559
 20
214.87432591160649
 30
0.0
  0
VERTEX
  5
1120
  8
0
  6
BYBLOCK
 62
     0
 10
259.51134139598571
 20
216.7018939116065
 30
0.0
  0
VERTEX
  5
1121
  8
0
  6
BYBLOCK
 62
     0
 10
261.01756739598562
 20
218.7791249116064
 30
0.0
  0
VERTEX
  5
1122
  8
0
  6
BYBLOCK
 62
     0
 10
262.06834839598571
 20
221.04290491160651
 30
0.0
  0
VERTEX
  5
1123
  8
0
  6
BYBLOCK
 62
     0
 10
262.24330839598559
 20
221.58739891160641
 30
0.0
  0
SEQEND
  5
1124
  8
0
  6
BYBLOCK
 62
     0
  0
LINE
  5
F0
  8
0
  6
BYBLOCK
 62
     0
 10
229.20770439598559
 20
218.84752091160641
 30
0.0
 11
224.02817139598559
 21
218.84752091160641
 31
0.0
  0
LINE
  5
F1
  8
0
  6
BYBLOCK
 62
     0
 10
224.6549043959856
 20
215.6990069116064
 30
0.0
 11
229.1527473959857
 21
215.6990069116064
 31
0.0
  0
LINE
  5
F2
  8
0
  6
BYBLOCK
 62
     0
 10
220.52817139598559
 20
227.8333289116064
 30
0.0
 11
218.48314139598571
 21
240.63582891160641
 31
0.0
  0
ARC
  5
F3
  8
0
  6
BYBLOCK
 62
     0
 10
224.6549043959856
 20
213.6990069116064
 30
0.0
 40
2.0
 50
90.0
 51
159.77903300000071
  0
ARC
  5
F4
  8
0
  6
BYBLOCK
 62
     0
 10
224.02817139598559
 20
219.34752091160641
 30
0.0
 40
0.5
 50
180.0
 51
270.0
  0
ARC
  5
F5
  8
0
  6
BYBLOCK
 62
     0
 10
240.5268453959857
 20
216.99953791160641
 30
0.0
 40
15.0
 50
172.9232459999983
 51
180.0
  0
LINE
  5
F6
  8
0
  6
BYBLOCK
 62
     0
 10
223.52817139598559
 20
219.34752091160641
 30
0.0
 11
223.52817139598559
 21
225.74954991160641
 31
0.0
  0
LINE
  5
F7
  8
0
  6
BYBLOCK
 62
     0
 10
225.52684539598559
 20
215.6990069116064
 30
0.0
 11
225.52684539598559
 21
216.99953791160641
 31
0.0
  0
LINE
  5
F8
  8
0
  6
BYBLOCK
 62
     0
 10
238.52817139598559
 20
228.81812991160649
 30
0.0
 11
238.52817139598559
 21
230.2953579116064
 31
0.0
  0
POLYLINE
  5
F9
  8
0
  6
BYBLOCK
 62
     0
 66
     1
 10
0.0
 20
0.0
 30
0.0
  0
VERTEX
  5
1125
  8
0
  6
BYBLOCK
 62
     0
 10
238.72976139598561
 20
230.5952799116065
 30
0.0
  0
VERTEX
  5
1126
  8
0
  6
BYBLOCK
 62
     0
 10
238.5407153959857
 20
230.37065091160639
 30
0.0
  0
VERTEX
  5
1127
  8
0
  6
BYBLOCK
 62
     0
 10
238.52817139598559
 20
230.2953579116064
 30
0.0
  0
SEQEND
  5
1128
  8
0
  6
BYBLOCK
 62
     0
  0
POLYLINE
  5
FA
  8
0
  6
BYBLOCK
 62
     0
 66
     1
 10
0.0
 20
0.0
 30
0.0
  0
VERTEX
  5
1129
  8
0
  6
BYBLOCK
 62
     0
 10
241.70282839598559
 20
201.52264591160639
 30
0.0
  0
VERTEX
  5
112A
  8
0
  6
BYBLOCK
 62
     0
 10
241.84574939598571
 20
201.4998119116064
 30
0.0
  0
VERTEX
  5
112B
  8
0
  6
BYBLOCK
 62
     0
 10
241.9887953959857
 20
201.4777489116064
 30
0.0
  0
VERTEX
  5
112C
  8
0
  6
BYBLOCK
 62
     0
 10
242.13196439598559
 20
201.45645991160649
 30
0.0
  0
VERTEX
  5
112D
  8
0
  6
BYBLOCK
 62
     0
 10
242.27525139598561
 20
201.43594191160631
 30
0.0
  0
VERTEX
  5
112E
  8
0
  6
BYBLOCK
 62
     0
 10
242.4186523959857
 20
201.41619691160651
 30
0.0
  0
VERTEX
  5
112F
  8
0
  6
BYBLOCK
 62
     0
 10
242.5621613959857
 20
201.3972249116064
 30
0.0
  0
VERTEX
  5
1130
  8
0
  6
BYBLOCK
 62
     0
 10
242.70577639598559
 20
201.3790259116065
 30
0.0
  0
VERTEX
  5
1131
  8
0
  6
BYBLOCK
 62
     0
 10
242.84949239598561
 20
201.3615999116065
 30
0.0
  0
VERTEX
  5
1132
  8
0
  6
BYBLOCK
 62
     0
 10
242.9933053959856
 20
201.3449469116064
 30
0.0
  0
VERTEX
  5
1133
  8
0
  6
BYBLOCK
 62
     0
 10
243.13720939598559
 20
201.32906691160639
 30
0.0
  0
VERTEX
  5
1134
  8
0
  6
BYBLOCK
 62
     0
 10
243.28120239598559
 20
201.31396091160639
 30
0.0
  0
VERTEX
  5
1135
  8
0
  6
BYBLOCK
 62
     0
 10
243.4252793959856
 20
201.29962791160639
 30
0.0
  0
VERTEX
  5
1136
  8
0
  6
BYBLOCK
 62
     0
 10
243.56943539598561
 20
201.28606791160649
 30
0.0
  0
VERTEX
  5
1137
  8
0
  6
BYBLOCK
 62
     0
 10
243.71366739598571
 20
201.2732819116064
 30
0.0
  0
VERTEX
  5
1138
  8
0
  6
BYBLOCK
 62
     0
 10
243.8579703959856
 20
201.26127091160629
 30
0.0
  0
VERTEX
  5
1139
  8
0
  6
BYBLOCK
 62
     0
 10
244.0023403959857
 20
201.25003291160641
 30
0.0
  0
VERTEX
  5
113A
  8
0
  6
BYBLOCK
 62
     0
 10
244.14677239598561
 20
201.23956891160651
 30
0.0
  0
VERTEX
  5
113B
  8
0
  6
BYBLOCK
 62
     0
 10
244.2912633959856
 20
201.2298799116065
 30
0.0
  0
VERTEX
  5
113C
  8
0
  6
BYBLOCK
 62
     0
 10
244.43580839598559
 20
201.2209649116065
 30
0.0
  0
VERTEX
  5
113D
  8
0
  6
BYBLOCK
 62
     0
 10
244.58040339598571
 20
201.2128249116065
 30
0.0
  0
VERTEX
  5
113E
  8
0
  6
BYBLOCK
 62
     0
 10
244.72504439598561
 20
201.20545891160651
 30
0.0
  0
VERTEX
  5
113F
  8
0
  6
BYBLOCK
 62
     0
 10
244.86972639598559
 20
201.19886791160641
 30
0.0
  0
VERTEX
  5
1140
  8
0
  6
BYBLOCK
 62
     0
 10
245.01444539598569
 20
201.19305191160649
 30
0.0
  0
VERTEX
  5
1141
  8
0
  6
BYBLOCK
 62
     0
 10
245.1591983959857
 20
201.18800991160651
 30
0.0
  0
VERTEX
  5
1142
  8
0
  6
BYBLOCK
 62
     0
 10
245.30397839598561
 20
201.1837439116064
 30
0.0
  0
VERTEX
  5
1143
  8
0
  6
BYBLOCK
 62
     0
 10
245.4487843959856
 20
201.1802539116064
 30
0.0
  0
VERTEX
  5
1144
  8
0
  6
BYBLOCK
 62
     0
 10
245.5936093959856
 20
201.1775389116064
 30
0.0
  0
VERTEX
  5
1145
  8
0
  6
BYBLOCK
 62
     0
 10
245.73845139598569
 20
201.17559891160639
 30
0.0
  0
VERTEX
  5
1146
  8
0
  6
BYBLOCK
 62
     0
 10
245.88330439598559
 20
201.1744349116064
 30
0.0
  0
VERTEX
  5
1147
  8
0
  6
BYBLOCK
 62
     0
 10
246.0281643959857
 20
201.1740469116065
 30
0.0
  0
VERTEX
  5
1148
  8
0
  6
BYBLOCK
 62
     0
 10
246.1730273959856
 20
201.17443391160651
 30
0.0
  0
VERTEX
  5
1149
  8
0
  6
BYBLOCK
 62
     0
 10
246.31788239598561
 20
201.17559791160639
 30
0.0
  0
VERTEX
  5
114A
  8
0
  6
BYBLOCK
 62
     0
 10
246.4627253959857
 20
201.17753691160641
 30
0.0
  0
VERTEX
  5
114B
  8
0
  6
BYBLOCK
 62
     0
 10
246.60755239598561
 20
201.18025191160649
 30
0.0
  0
VERTEX
  5
114C
  8
0
  6
BYBLOCK
 62
     0
 10
246.75235939598559
 20
201.1837429116064
 30
0.0
  0
VERTEX
  5
114D
  8
0
  6
BYBLOCK
 62
     0
 10
246.89714139598561
 20
201.18800891160649
 30
0.0
  0
VERTEX
  5
114E
  8
0
  6
BYBLOCK
 62
     0
 10
247.04189539598559
 20
201.19304991160641
 30
0.0
  0
VERTEX
  5
114F
  8
0
  6
BYBLOCK
 62
     0
 10
247.1866153959856
 20
201.19886591160639
 30
0.0
  0
VERTEX
  5
1150
  8
0
  6
BYBLOCK
 62
     0
 10
247.3312993959857
 20
201.2054569116064
 30
0.0
  0
VERTEX
  5
1151
  8
0
  6
BYBLOCK
 62
     0
 10
247.4759403959857
 20
201.21282391160651
 30
0.0
  0
VERTEX
  5
1152
  8
0
  6
BYBLOCK
 62
     0
 10
247.6205363959856
 20
201.2209639116065
 30
0.0
  0
VERTEX
  5
1153
  8
0
  6
BYBLOCK
 62
     0
 10
247.76508239598559
 20
201.2298799116065
 30
0.0
  0
VERTEX
  5
1154
  8
0
  6
BYBLOCK
 62
     0
 10
247.9095733959856
 20
201.23956891160651
 30
0.0
  0
VERTEX
  5
1155
  8
0
  6
BYBLOCK
 62
     0
 10
248.0540063959856
 20
201.25003291160641
 30
0.0
  0
VERTEX
  5
1156
  8
0
  6
BYBLOCK
 62
     0
 10
248.19837739598569
 20
201.26127091160629
 30
0.0
  0
VERTEX
  5
1157
  8
0
  6
BYBLOCK
 62
     0
 10
248.3426803959857
 20
201.2732829116064
 30
0.0
  0
VERTEX
  5
1158
  8
0
  6
BYBLOCK
 62
     0
 10
248.4869123959856
 20
201.28606891160641
 30
0.0
  0
VERTEX
  5
1159
  8
0
  6
BYBLOCK
 62
     0
 10
248.63106939598569
 20
201.29962891160639
 30
0.0
  0
VERTEX
  5
115A
  8
0
  6
BYBLOCK
 62
     0
 10
248.7751453959857
 20
201.31396191160641
 30
0.0
  0
VERTEX
  5
115B
  8
0
  6
BYBLOCK
 62
     0
 10
248.9191383959857
 20
201.32906891160641
 30
0.0
  0
VERTEX
  5
115C
  8
0
  6
BYBLOCK
 62
     0
 10
249.0630433959856
 20
201.34494891160651
 30
0.0
  0
VERTEX
  5
115D
  8
0
  6
BYBLOCK
 62
     0
 10
249.2068553959856
 20
201.36160291160641
 30
0.0
  0
VERTEX
  5
115E
  8
0
  6
BYBLOCK
 62
     0
 10
249.35057039598561
 20
201.3790289116065
 30
0.0
  0
VERTEX
  5
115F
  8
0
  6
BYBLOCK
 62
     0
 10
249.4941853959856
 20
201.39722791160639
 30
0.0
  0
VERTEX
  5
1160
  8
0
  6
BYBLOCK
 62
     0
 10
249.6376943959857
 20
201.41619991160641
 30
0.0
  0
VERTEX
  5
1161
  8
0
  6
BYBLOCK
 62
     0
 10
249.78109339598561
 20
201.4359449116065
 30
0.0
  0
VERTEX
  5
1162
  8
0
  6
BYBLOCK
 62
     0
 10
249.9243793959856
 20
201.4564619116064
 30
0.0
  0
VERTEX
  5
1163
  8
0
  6
BYBLOCK
 62
     0
 10
250.06754839598571
 20
201.47775091160651
 30
0.0
  0
VERTEX
  5
1164
  8
0
  6
BYBLOCK
 62
     0
 10
250.2105933959856
 20
201.4998129116064
 30
0.0
  0
VERTEX
  5
1165
  8
0
  6
BYBLOCK
 62
     0
 10
250.3535133959856
 20
201.5226469116065
 30
0.0
  0
SEQEND
  5
1166
  8
0
  6
BYBLOCK
 62
     0
  0
POLYLINE
  5
FB
  8
0
  6
BYBLOCK
 62
     0
 66
     1
 10
0.0
 20
0.0
 30
0.0
  0
VERTEX
  5
1167
  8
0
  6
BYBLOCK
 62
     0
 10
242.5281693959856
 20
204.65285691160639
 30
0.0
  0
VERTEX
  5
1168
  8
0
  6
BYBLOCK
 62
     0
 10
242.64387439598559
 20
204.63591691160639
 30
0.0
  0
VERTEX
  5
1169
  8
0
  6
BYBLOCK
 62
     0
 10
242.75967839598559
 20
204.61954791160639
 30
0.0
  0
VERTEX
  5
116A
  8
0
  6
BYBLOCK
 62
     0
 10
242.8755763959856
 20
204.60375191160651
 30
0.0
  0
VERTEX
  5
116B
  8
0
  6
BYBLOCK
 62
     0
 10
242.9915663959857
 20
204.58852691160649
 30
0.0
  0
VERTEX
  5
116C
  8
0
  6
BYBLOCK
 62
     0
 10
243.1076453959856
 20
204.5738749116064
 30
0.0
  0
VERTEX
  5
116D
  8
0
  6
BYBLOCK
 62
     0
 10
243.2238083959856
 20
204.55979391160639
 30
0.0
  0
VERTEX
  5
116E
  8
0
  6
BYBLOCK
 62
     0
 10
243.34005239598571
 20
204.54628691160639
 30
0.0
  0
VERTEX
  5
116F
  8
0
  6
BYBLOCK
 62
     0
 10
243.4563743959857
 20
204.53335191160639
 30
0.0
  0
VERTEX
  5
1170
  8
0
  6
BYBLOCK
 62
     0
 10
243.57277039598571
 20
204.52098891160651
 30
0.0
  0
VERTEX
  5
1171
  8
0
  6
BYBLOCK
 62
     0
 10
243.6892373959856
 20
204.50919991160629
 30
0.0
  0
VERTEX
  5
1172
  8
0
  6
BYBLOCK
 62
     0
 10
243.80577239598571
 20
204.4979839116065
 30
0.0
  0
VERTEX
  5
1173
  8
0
  6
BYBLOCK
 62
     0
 10
243.92237039598569
 20
204.48734191160639
 30
0.0
  0
VERTEX
  5
1174
  8
0
  6
BYBLOCK
 62
     0
 10
244.03903039598569
 20
204.47727291160649
 30
0.0
  0
VERTEX
  5
1175
  8
0
  6
BYBLOCK
 62
     0
 10
244.1557463959856
 20
204.4677779116065
 30
0.0
  0
VERTEX
  5
1176
  8
0
  6
BYBLOCK
 62
     0
 10
244.27251639598569
 20
204.45885691160649
 30
0.0
  0
VERTEX
  5
1177
  8
0
  6
BYBLOCK
 62
     0
 10
244.38933639598571
 20
204.4505099116065
 30
0.0
  0
VERTEX
  5
1178
  8
0
  6
BYBLOCK
 62
     0
 10
244.50620339598561
 20
204.4427369116064
 30
0.0
  0
VERTEX
  5
1179
  8
0
  6
BYBLOCK
 62
     0
 10
244.6231143959856
 20
204.4355389116065
 30
0.0
  0
VERTEX
  5
117A
  8
0
  6
BYBLOCK
 62
     0
 10
244.74006439598571
 20
204.42891591160651
 30
0.0
  0
VERTEX
  5
117B
  8
0
  6
BYBLOCK
 62
     0
 10
244.85705139598571
 20
204.42286791160649
 30
0.0
  0
VERTEX
  5
117C
  8
0
  6
BYBLOCK
 62
     0
 10
244.9740713959857
 20
204.4173939116065
 30
0.0
  0
VERTEX
  5
117D
  8
0
  6
BYBLOCK
 62
     0
 10
245.09112139598571
 20
204.41249591160641
 30
0.0
  0
VERTEX
  5
117E
  8
0
  6
BYBLOCK
 62
     0
 10
245.20819739598559
 20
204.40817391160641
 30
0.0
  0
VERTEX
  5
117F
  8
0
  6
BYBLOCK
 62
     0
 10
245.32529539598571
 20
204.40442691160641
 30
0.0
  0
VERTEX
  5
1180
  8
0
  6
BYBLOCK
 62
     0
 10
245.4424133959856
 20
204.40125591160651
 30
0.0
  0
VERTEX
  5
1181
  8
0
  6
BYBLOCK
 62
     0
 10
245.55954739598559
 20
204.39866191160641
 30
0.0
  0
VERTEX
  5
1182
  8
0
  6
BYBLOCK
 62
     0
 10
245.67669339598569
 20
204.39664291160639
 30
0.0
  0
VERTEX
  5
1183
  8
0
  6
BYBLOCK
 62
     0
 10
245.79384839598569
 20
204.39520091160639
 30
0.0
  0
VERTEX
  5
1184
  8
0
  6
BYBLOCK
 62
     0
 10
245.91100839598559
 20
204.39433491160651
 30
0.0
  0
VERTEX
  5
1185
  8
0
  6
BYBLOCK
 62
     0
 10
246.02817139598571
 20
204.39404691160649
 30
0.0
  0
VERTEX
  5
1186
  8
0
  6
BYBLOCK
 62
     0
 10
246.1453333959856
 20
204.39433491160651
 30
0.0
  0
VERTEX
  5
1187
  8
0
  6
BYBLOCK
 62
     0
 10
246.26249339598559
 20
204.3951999116064
 30
0.0
  0
VERTEX
  5
1188
  8
0
  6
BYBLOCK
 62
     0
 10
246.3796473959857
 20
204.39664191160639
 30
0.0
  0
VERTEX
  5
1189
  8
0
  6
BYBLOCK
 62
     0
 10
246.49679239598569
 20
204.3986599116065
 30
0.0
  0
VERTEX
  5
118A
  8
0
  6
BYBLOCK
 62
     0
 10
246.6139253959856
 20
204.40125491160649
 30
0.0
  0
VERTEX
  5
118B
  8
0
  6
BYBLOCK
 62
     0
 10
246.73104339598561
 20
204.40442591160649
 30
0.0
  0
VERTEX
  5
118C
  8
0
  6
BYBLOCK
 62
     0
 10
246.84814139598561
 20
204.40817191160639
 30
0.0
  0
VERTEX
  5
118D
  8
0
  6
BYBLOCK
 62
     0
 10
246.96521639598561
 20
204.41249491160639
 30
0.0
  0
VERTEX
  5
118E
  8
0
  6
BYBLOCK
 62
     0
 10
247.0822653959857
 20
204.4173929116065
 30
0.0
  0
VERTEX
  5
118F
  8
0
  6
BYBLOCK
 62
     0
 10
247.1992853959857
 20
204.42286591160641
 30
0.0
  0
VERTEX
  5
1190
  8
0
  6
BYBLOCK
 62
     0
 10
247.31627139598561
 20
204.42891391160649
 30
0.0
  0
VERTEX
  5
1191
  8
0
  6
BYBLOCK
 62
     0
 10
247.43322139598561
 20
204.4355379116063
 30
0.0
  0
VERTEX
  5
1192
  8
0
  6
BYBLOCK
 62
     0
 10
247.5501313959856
 20
204.44273591160649
 30
0.0
  0
VERTEX
  5
1193
  8
0
  6
BYBLOCK
 62
     0
 10
247.66699839598559
 20
204.45050891160651
 30
0.0
  0
VERTEX
  5
1194
  8
0
  6
BYBLOCK
 62
     0
 10
247.78381839598561
 20
204.45885591160649
 30
0.0
  0
VERTEX
  5
1195
  8
0
  6
BYBLOCK
 62
     0
 10
247.90058839598561
 20
204.46777691160651
 30
0.0
  0
VERTEX
  5
1196
  8
0
  6
BYBLOCK
 62
     0
 10
248.0173053959856
 20
204.47727291160649
 30
0.0
  0
VERTEX
  5
1197
  8
0
  6
BYBLOCK
 62
     0
 10
248.1339643959856
 20
204.48734191160639
 30
0.0
  0
VERTEX
  5
1198
  8
0
  6
BYBLOCK
 62
     0
 10
248.25056239598561
 20
204.49798491160649
 30
0.0
  0
VERTEX
  5
1199
  8
0
  6
BYBLOCK
 62
     0
 10
248.36709739598561
 20
204.50920091160651
 30
0.0
  0
VERTEX
  5
119A
  8
0
  6
BYBLOCK
 62
     0
 10
248.48356439598561
 20
204.52098991160651
 30
0.0
  0
VERTEX
  5
119B
  8
0
  6
BYBLOCK
 62
     0
 10
248.5999613959857
 20
204.53335191160639
 30
0.0
  0
VERTEX
  5
119C
  8
0
  6
BYBLOCK
 62
     0
 10
248.71628339598561
 20
204.54628791160641
 30
0.0
  0
VERTEX
  5
119D
  8
0
  6
BYBLOCK
 62
     0
 10
248.83252739598569
 20
204.55979591160639
 30
0.0
  0
VERTEX
  5
119E
  8
0
  6
BYBLOCK
 62
     0
 10
248.94869139598561
 20
204.57387591160639
 30
0.0
  0
VERTEX
  5
119F
  8
0
  6
BYBLOCK
 62
     0
 10
249.06476939598571
 20
204.5885289116064
 30
0.0
  0
VERTEX
  5
11A0
  8
0
  6
BYBLOCK
 62
     0
 10
249.1807603959856
 20
204.60375291160639
 30
0.0
  0
VERTEX
  5
11A1
  8
0
  6
BYBLOCK
 62
     0
 10
249.29665939598561
 20
204.61954991160641
 30
0.0
  0
VERTEX
  5
11A2
  8
0
  6
BYBLOCK
 62
     0
 10
249.41246339598561
 20
204.63591791160641
 30
0.0
  0
VERTEX
  5
11A3
  8
0
  6
BYBLOCK
 62
     0
 10
249.5281693959856
 20
204.65285791160639
 30
0.0
  0
SEQEND
  5
11A4
  8
0
  6
BYBLOCK
 62
     0
  0
POLYLINE
  5
FC
  8
0
  6
BYBLOCK
 62
     0
 66
     1
 10
0.0
 20
0.0
 30
0.0
  0
VERTEX
  5
11A5
  8
0
  6
BYBLOCK
 62
     0
 10
242.14543339598561
 20
203.62912291160649
 30
0.0
  0
VERTEX
  5
11A6
  8
0
  6
BYBLOCK
 62
     0
 10
241.99855039598569
 20
203.66352991160639
 30
0.0
  0
VERTEX
  5
11A7
  8
0
  6
BYBLOCK
 62
     0
 10
241.84837839598561
 20
203.66980591160649
 30
0.0
  0
VERTEX
  5
11A8
  8
0
  6
BYBLOCK
 62
     0
 10
241.6994813959856
 20
203.64776191160649
 30
0.0
  0
VERTEX
  5
11A9
  8
0
  6
BYBLOCK
 62
     0
 10
241.55638339598559
 20
203.5980659116064
 30
0.0
  0
VERTEX
  5
11AA
  8
0
  6
BYBLOCK
 62
     0
 10
241.4234313959856
 20
203.52222791160651
 30
0.0
  0
VERTEX
  5
11AB
  8
0
  6
BYBLOCK
 62
     0
 10
241.30466539598561
 20
203.4225539116064
 30
0.0
  0
VERTEX
  5
11AC
  8
0
  6
BYBLOCK
 62
     0
 10
241.20369539598559
 20
203.30207091160639
 30
0.0
  0
VERTEX
  5
11AD
  8
0
  6
BYBLOCK
 62
     0
 10
241.1235873959856
 20
203.16443991160639
 30
0.0
  0
VERTEX
  5
11AE
  8
0
  6
BYBLOCK
 62
     0
 10
241.06677639598561
 20
203.01384291160639
 30
0.0
  0
VERTEX
  5
11AF
  8
0
  6
BYBLOCK
 62
     0
 10
241.0349893959856
 20
202.85485691160639
 30
0.0
  0
VERTEX
  5
11B0
  8
0
  6
BYBLOCK
 62
     0
 10
241.02816939598571
 20
202.7377119116064
 30
0.0
  0
SEQEND
  5
11B1
  8
0
  6
BYBLOCK
 62
     0
  0
LINE
  5
FD
  8
0
  6
BYBLOCK
 62
     0
 10
242.5281693959856
 20
204.65285691160639
 30
0.0
 11
242.5281693959856
 21
203.5715709116065
 31
0.0
  0
POLYLINE
  5
FE
  8
0
  6
BYBLOCK
 62
     0
 66
     1
 10
0.0
 20
0.0
 30
0.0
  0
VERTEX
  5
11B2
  8
0
  6
BYBLOCK
 62
     0
 10
242.14543339598561
 20
203.62912291160649
 30
0.0
  0
VERTEX
  5
11B3
  8
0
  6
BYBLOCK
 62
     0
 10
242.1581743959857
 20
203.6271079116064
 30
0.0
  0
VERTEX
  5
11B4
  8
0
  6
BYBLOCK
 62
     0
 10
242.1709163959857
 20
203.62509891160639
 30
0.0
  0
VERTEX
  5
11B5
  8
0
  6
BYBLOCK
 62
     0
 10
242.1836593959857
 20
203.62309791160641
 30
0.0
  0
VERTEX
  5
11B6
  8
0
  6
BYBLOCK
 62
     0
 10
242.1964043959857
 20
203.62110291160641
 30
0.0
  0
VERTEX
  5
11B7
  8
0
  6
BYBLOCK
 62
     0
 10
242.2091503959856
 20
203.61911391160649
 30
0.0
  0
VERTEX
  5
11B8
  8
0
  6
BYBLOCK
 62
     0
 10
242.22189739598571
 20
203.6171329116064
 30
0.0
  0
VERTEX
  5
11B9
  8
0
  6
BYBLOCK
 62
     0
 10
242.23464539598561
 20
203.6151579116065
 30
0.0
  0
VERTEX
  5
11BA
  8
0
  6
BYBLOCK
 62
     0
 10
242.24739439598571
 20
203.61318991160641
 30
0.0
  0
VERTEX
  5
11BB
  8
0
  6
BYBLOCK
 62
     0
 10
242.26014539598569
 20
203.61122791160639
 30
0.0
  0
VERTEX
  5
11BC
  8
0
  6
BYBLOCK
 62
     0
 10
242.27289739598561
 20
203.60927291160641
 30
0.0
  0
VERTEX
  5
11BD
  8
0
  6
BYBLOCK
 62
     0
 10
242.28564939598559
 20
203.6073249116065
 30
0.0
  0
VERTEX
  5
11BE
  8
0
  6
BYBLOCK
 62
     0
 10
242.29840339598559
 20
203.60538291160651
 30
0.0
  0
VERTEX
  5
11BF
  8
0
  6
BYBLOCK
 62
     0
 10
242.31115839598559
 20
203.60344791160639
 30
0.0
  0
VERTEX
  5
11C0
  8
0
  6
BYBLOCK
 62
     0
 10
242.32391539598569
 20
203.60151891160641
 30
0.0
  0
VERTEX
  5
11C1
  8
0
  6
BYBLOCK
 62
     0
 10
242.33667239598569
 20
203.59959791160639
 30
0.0
  0
VERTEX
  5
11C2
  8
0
  6
BYBLOCK
 62
     0
 10
242.34943139598559
 20
203.59768291160651
 30
0.0
  0
VERTEX
  5
11C3
  8
0
  6
BYBLOCK
 62
     0
 10
242.3621913959856
 20
203.59577391160639
 30
0.0
  0
VERTEX
  5
11C4
  8
0
  6
BYBLOCK
 62
     0
 10
242.37495139598559
 20
203.59387291160641
 30
0.0
  0
VERTEX
  5
11C5
  8
0
  6
BYBLOCK
 62
     0
 10
242.38771339598571
 20
203.59197791160639
 30
0.0
  0
VERTEX
  5
11C6
  8
0
  6
BYBLOCK
 62
     0
 10
242.40047639598561
 20
203.59008891160639
 30
0.0
  0
VERTEX
  5
11C7
  8
0
  6
BYBLOCK
 62
     0
 10
242.41324139598561
 20
203.58820691160639
 30
0.0
  0
VERTEX
  5
11C8
  8
0
  6
BYBLOCK
 62
     0
 10
242.42600639598561
 20
203.58633191160649
 30
0.0
  0
VERTEX
  5
11C9
  8
0
  6
BYBLOCK
 62
     0
 10
242.43877339598569
 20
203.58446391160641
 30
0.0
  0
VERTEX
  5
11CA
  8
0
  6
BYBLOCK
 62
     0
 10
242.45154039598569
 20
203.58260191160639
 30
0.0
  0
VERTEX
  5
11CB
  8
0
  6
BYBLOCK
 62
     0
 10
242.46430939598559
 20
203.5807469116065
 30
0.0
  0
VERTEX
  5
11CC
  8
0
  6
BYBLOCK
 62
     0
 10
242.47707939598561
 20
203.57889891160639
 30
0.0
  0
VERTEX
  5
11CD
  8
0
  6
BYBLOCK
 62
     0
 10
242.48985039598571
 20
203.57705691160649
 30
0.0
  0
VERTEX
  5
11CE
  8
0
  6
BYBLOCK
 62
     0
 10
242.5026223959857
 20
203.57522191160641
 30
0.0
  0
VERTEX
  5
11CF
  8
0
  6
BYBLOCK
 62
     0
 10
242.51539539598571
 20
203.5733929116065
 30
0.0
  0
VERTEX
  5
11D0
  8
0
  6
BYBLOCK
 62
     0
 10
242.5281693959856
 20
203.5715709116065
 30
0.0
  0
SEQEND
  5
11D1
  8
0
  6
BYBLOCK
 62
     0
  0
POLYLINE
  5
FF
  8
0
  6
BYBLOCK
 62
     0
 66
     1
 10
0.0
 20
0.0
 30
0.0
  0
VERTEX
  5
11D2
  8
0
  6
BYBLOCK
 62
     0
 10
241.02816939598571
 20
202.7377119116064
 30
0.0
  0
VERTEX
  5
11D3
  8
0
  6
BYBLOCK
 62
     0
 10
241.0412673959857
 20
202.52154491160641
 30
0.0
  0
VERTEX
  5
11D4
  8
0
  6
BYBLOCK
 62
     0
 10
241.08016339598561
 20
202.31194491160639
 30
0.0
  0
VERTEX
  5
11D5
  8
0
  6
BYBLOCK
 62
     0
 10
241.14367639598561
 20
202.1152819116065
 30
0.0
  0
VERTEX
  5
11D6
  8
0
  6
BYBLOCK
 62
     0
 10
241.22987539598569
 20
201.93753091160639
 30
0.0
  0
VERTEX
  5
11D7
  8
0
  6
BYBLOCK
 62
     0
 10
241.33614139598569
 20
201.7840939116065
 30
0.0
  0
VERTEX
  5
11D8
  8
0
  6
BYBLOCK
 62
     0
 10
241.4592463959857
 20
201.6596319116064
 30
0.0
  0
VERTEX
  5
11D9
  8
0
  6
BYBLOCK
 62
     0
 10
241.5954493959857
 20
201.56792591160649
 30
0.0
  0
VERTEX
  5
11DA
  8
0
  6
BYBLOCK
 62
     0
 10
241.74061239598561
 20
201.51176391160649
 30
0.0
  0
VERTEX
  5
11DB
  8
0
  6
BYBLOCK
 62
     0
 10
241.89032439598569
 20
201.49285191160649
 30
0.0
  0
SEQEND
  5
11DC
  8
0
  6
BYBLOCK
 62
     0
  0
POLYLINE
  5
100
  8
0
  6
BYBLOCK
 62
     0
 66
     1
 10
0.0
 20
0.0
 30
0.0
  0
VERTEX
  5
11DD
  8
0
  6
BYBLOCK
 62
     0
 10
251.02816939598571
 20
202.7377119116064
 30
0.0
  0
VERTEX
  5
11DE
  8
0
  6
BYBLOCK
 62
     0
 10
251.01507139598559
 20
202.89976091160639
 30
0.0
  0
VERTEX
  5
11DF
  8
0
  6
BYBLOCK
 62
     0
 10
250.97617439598559
 20
203.05688491160649
 30
0.0
  0
VERTEX
  5
11E0
  8
0
  6
BYBLOCK
 62
     0
 10
250.91266239598559
 20
203.20431191160651
 30
0.0
  0
VERTEX
  5
11E1
  8
0
  6
BYBLOCK
 62
     0
 10
250.82646339598571
 20
203.33756091160649
 30
0.0
  0
VERTEX
  5
11E2
  8
0
  6
BYBLOCK
 62
     0
 10
250.72019639598571
 20
203.4525839116065
 30
0.0
  0
VERTEX
  5
11E3
  8
0
  6
BYBLOCK
 62
     0
 10
250.5970913959857
 20
203.5458859116064
 30
0.0
  0
VERTEX
  5
11E4
  8
0
  6
BYBLOCK
 62
     0
 10
250.46088839598571
 20
203.61463291160641
 30
0.0
  0
VERTEX
  5
11E5
  8
0
  6
BYBLOCK
 62
     0
 10
250.31572639598559
 20
203.65673391160649
 30
0.0
  0
VERTEX
  5
11E6
  8
0
  6
BYBLOCK
 62
     0
 10
250.1660143959856
 20
203.6709109116064
 30
0.0
  0
VERTEX
  5
11E7
  8
0
  6
BYBLOCK
 62
     0
 10
250.0163023959856
 20
203.65673391160649
 30
0.0
  0
VERTEX
  5
11E8
  8
0
  6
BYBLOCK
 62
     0
 10
249.91090539598559
 20
203.62912291160649
 30
0.0
  0
SEQEND
  5
11E9
  8
0
  6
BYBLOCK
 62
     0
  0
LINE
  5
101
  8
0
  6
BYBLOCK
 62
     0
 10
249.5281693959856
 20
204.65285791160639
 30
0.0
 11
249.5281693959856
 21
203.57157291160649
 31
0.0
  0
POLYLINE
  5
102
  8
0
  6
BYBLOCK
 62
     0
 66
     1
 10
0.0
 20
0.0
 30
0.0
  0
VERTEX
  5
11EA
  8
0
  6
BYBLOCK
 62
     0
 10
249.91090539598559
 20
203.62912291160649
 30
0.0
  0
VERTEX
  5
11EB
  8
0
  6
BYBLOCK
 62
     0
 10
249.8981643959857
 20
203.6271079116064
 30
0.0
  0
VERTEX
  5
11EC
  8
0
  6
BYBLOCK
 62
     0
 10
249.8854223959857
 20
203.62509891160639
 30
0.0
  0
VERTEX
  5
11ED
  8
0
  6
BYBLOCK
 62
     0
 10
249.87267839598559
 20
203.62309791160641
 30
0.0
  0
VERTEX
  5
11EE
  8
0
  6
BYBLOCK
 62
     0
 10
249.85993439598559
 20
203.62110291160641
 30
0.0
  0
VERTEX
  5
11EF
  8
0
  6
BYBLOCK
 62
     0
 10
249.8471883959856
 20
203.61911391160649
 30
0.0
  0
VERTEX
  5
11F0
  8
0
  6
BYBLOCK
 62
     0
 10
249.83444139598561
 20
203.6171329116064
 30
0.0
  0
VERTEX
  5
11F1
  8
0
  6
BYBLOCK
 62
     0
 10
249.8216933959857
 20
203.6151579116065
 30
0.0
  0
VERTEX
  5
11F2
  8
0
  6
BYBLOCK
 62
     0
 10
249.80894339598569
 20
203.61318991160641
 30
0.0
  0
VERTEX
  5
11F3
  8
0
  6
BYBLOCK
 62
     0
 10
249.7961933959856
 20
203.61122791160639
 30
0.0
  0
VERTEX
  5
11F4
  8
0
  6
BYBLOCK
 62
     0
 10
249.7834413959857
 20
203.60927291160641
 30
0.0
  0
VERTEX
  5
11F5
  8
0
  6
BYBLOCK
 62
     0
 10
249.77068839598559
 20
203.6073249116065
 30
0.0
  0
VERTEX
  5
11F6
  8
0
  6
BYBLOCK
 62
     0
 10
249.7579343959857
 20
203.60538291160651
 30
0.0
  0
VERTEX
  5
11F7
  8
0
  6
BYBLOCK
 62
     0
 10
249.74517939598559
 20
203.60344791160639
 30
0.0
  0
VERTEX
  5
11F8
  8
0
  6
BYBLOCK
 62
     0
 10
249.73242339598571
 20
203.60151891160641
 30
0.0
  0
VERTEX
  5
11F9
  8
0
  6
BYBLOCK
 62
     0
 10
249.71966539598569
 20
203.59959791160639
 30
0.0
  0
VERTEX
  5
11FA
  8
0
  6
BYBLOCK
 62
     0
 10
249.7069073959857
 20
203.59768291160651
 30
0.0
  0
VERTEX
  5
11FB
  8
0
  6
BYBLOCK
 62
     0
 10
249.69414739598571
 20
203.59577391160639
 30
0.0
  0
VERTEX
  5
11FC
  8
0
  6
BYBLOCK
 62
     0
 10
249.68138639598561
 20
203.59387291160641
 30
0.0
  0
VERTEX
  5
11FD
  8
0
  6
BYBLOCK
 62
     0
 10
249.6686243959856
 20
203.59197791160639
 30
0.0
  0
VERTEX
  5
11FE
  8
0
  6
BYBLOCK
 62
     0
 10
249.65586139598571
 20
203.59008891160639
 30
0.0
  0
VERTEX
  5
11FF
  8
0
  6
BYBLOCK
 62
     0
 10
249.64309739598559
 20
203.58820691160639
 30
0.0
  0
VERTEX
  5
1200
  8
0
  6
BYBLOCK
 62
     0
 10
249.63033239598559
 20
203.58633191160649
 30
0.0
  0
VERTEX
  5
1201
  8
0
  6
BYBLOCK
 62
     0
 10
249.61756539598559
 20
203.58446391160641
 30
0.0
  0
VERTEX
  5
1202
  8
0
  6
BYBLOCK
 62
     0
 10
249.60479739598571
 20
203.58260191160639
 30
0.0
  0
VERTEX
  5
1203
  8
0
  6
BYBLOCK
 62
     0
 10
249.59202939598561
 20
203.5807469116065
 30
0.0
  0
VERTEX
  5
1204
  8
0
  6
BYBLOCK
 62
     0
 10
249.57925939598559
 20
203.57889891160639
 30
0.0
  0
VERTEX
  5
1205
  8
0
  6
BYBLOCK
 62
     0
 10
249.5664883959856
 20
203.57705691160649
 30
0.0
  0
VERTEX
  5
1206
  8
0
  6
BYBLOCK
 62
     0
 10
249.55371639598559
 20
203.57522191160641
 30
0.0
  0
VERTEX
  5
1207
  8
0
  6
BYBLOCK
 62
     0
 10
249.54094339598561
 20
203.5733929116065
 30
0.0
  0
VERTEX
  5
1208
  8
0
  6
BYBLOCK
 62
     0
 10
249.5281693959856
 20
203.5715709116065
 30
0.0
  0
SEQEND
  5
1209
  8
0
  6
BYBLOCK
 62
     0
  0
POLYLINE
  5
103
  8
0
  6
BYBLOCK
 62
     0
 66
     1
 10
0.0
 20
0.0
 30
0.0
  0
VERTEX
  5
120A
  8
0
  6
BYBLOCK
 62
     0
 10
250.1660143959856
 20
201.49285191160649
 30
0.0
  0
VERTEX
  5
120B
  8
0
  6
BYBLOCK
 62
     0
 10
250.31572639598559
 20
201.51176391160649
 30
0.0
  0
VERTEX
  5
120C
  8
0
  6
BYBLOCK
 62
     0
 10
250.46088839598571
 20
201.56792591160649
 30
0.0
  0
VERTEX
  5
120D
  8
0
  6
BYBLOCK
 62
     0
 10
250.5970913959857
 20
201.6596319116064
 30
0.0
  0
VERTEX
  5
120E
  8
0
  6
BYBLOCK
 62
     0
 10
250.72019639598571
 20
201.7840939116065
 30
0.0
  0
VERTEX
  5
120F
  8
0
  6
BYBLOCK
 62
     0
 10
250.82646339598571
 20
201.93753091160639
 30
0.0
  0
VERTEX
  5
1210
  8
0
  6
BYBLOCK
 62
     0
 10
250.91266239598559
 20
202.1152819116065
 30
0.0
  0
VERTEX
  5
1211
  8
0
  6
BYBLOCK
 62
     0
 10
250.97617439598559
 20
202.31194491160639
 30
0.0
  0
VERTEX
  5
1212
  8
0
  6
BYBLOCK
 62
     0
 10
251.01507139598559
 20
202.52154491160641
 30
0.0
  0
VERTEX
  5
1213
  8
0
  6
BYBLOCK
 62
     0
 10
251.02816939598571
 20
202.7377119116064
 30
0.0
  0
SEQEND
  5
1214
  8
0
  6
BYBLOCK
 62
     0
  0
LINE
  5
104
  8
0
  6
BYBLOCK
 62
     0
 10
253.52817139598571
 20
228.81812991160649
 30
0.0
 11
253.52817139598571
 21
230.2953579116064
 31
0.0
  0
POLYLINE
  5
105
  8
0
  6
BYBLOCK
 62
     0
 66
     1
 10
0.0
 20
0.0
 30
0.0
  0
VERTEX
  5
1215
  8
0
  6
BYBLOCK
 62
     0
 10
253.52817139598571
 20
230.2953579116064
 30
0.0
  0
VERTEX
  5
1216
  8
0
  6
BYBLOCK
 62
     0
 10
253.41422939598559
 20
230.52150891160639
 30
0.0
  0
VERTEX
  5
1217
  8
0
  6
BYBLOCK
 62
     0
 10
253.32658139598561
 20
230.5952799116065
 30
0.0
  0
SEQEND
  5
1218
  8
0
  6
BYBLOCK
 62
     0
  0
LINE
  5
106
  8
0
  6
BYBLOCK
 62
     0
 10
269.27817139598568
 20
214.3902899116064
 30
0.0
 11
272.02811539598559
 21
171.49900691160639
 31
0.0
  0
LINE
  5
107
  8
0
  6
BYBLOCK
 62
     0
 10
264.19570639598561
 20
170.3989969116065
 30
0.0
 11
272.02817139598568
 21
170.3989969116065
 31
0.0
  0
LINE
  5
108
  8
0
  6
BYBLOCK
 62
     0
 10
264.17432639598559
 20
171.1990069116064
 30
0.0
 11
271.7281153959857
 21
171.1990069116064
 31
0.0
  0
LINE
  5
109
  8
0
  6
BYBLOCK
 62
     0
 10
269.27817139598568
 20
171.1990069116064
 30
0.0
 11
269.27817139598568
 21
170.3989969116065
 31
0.0
  0
LINE
  5
10A
  8
0
  6
BYBLOCK
 62
     0
 10
271.7281153959857
 20
171.1990069116064
 30
0.0
 11
272.02811539598559
 21
171.49900691160639
 31
0.0
  0
LINE
  5
10B
  8
0
  6
BYBLOCK
 62
     0
 10
271.52817139598568
 20
227.8333289116064
 30
0.0
 11
273.57320139598562
 21
240.63582891160641
 31
0.0
  0
ARC
  5
10C
  8
0
  6
BYBLOCK
 62
     0
 10
267.40143839598562
 20
213.6990069116064
 30
0.0
 40
2.0
 50
20.220966999999231
 51
90.0
  0
ARC
  5
10D
  8
0
  6
BYBLOCK
 62
     0
 10
268.02817139598568
 20
219.34752091160641
 30
0.0
 40
0.5
 50
270.0
 51
0.0
  0
LINE
  5
10E
  8
0
  6
BYBLOCK
 62
     0
 10
268.52817139598568
 20
219.34752091160641
 30
0.0
 11
268.52817139598568
 21
225.74954991160641
 31
0.0
  0
ARC
  5
10F
  8
0
  6
BYBLOCK
 62
     0
 10
251.52949739598569
 20
216.99953791160641
 30
0.0
 40
15.0
 50
0.0
 51
7.0767540000016398
  0
LINE
  5
110
  8
0
  6
BYBLOCK
 62
     0
 10
266.52949739598569
 20
215.6990069116064
 30
0.0
 11
266.52949739598569
 21
216.99953791160641
 31
0.0
  0
ARC
  5
111
  8
0
  6
BYBLOCK
 62
     0
 10
320.00302939598561
 20
50.398999911606438
 30
0.0
 40
3.0
 50
270.0
 51
345.26279600000061
  0
POLYLINE
  5
112
  8
0
  6
BYBLOCK
 62
     0
 66
     1
 10
0.0
 20
0.0
 30
0.0
  0
VERTEX
  5
1219
  8
0
  6
BYBLOCK
 62
     0
 10
317.8781713959857
 20
85.011837911606449
 30
0.0
  0
VERTEX
  5
121A
  8
0
  6
BYBLOCK
 62
     0
 10
317.93794939598558
 20
85.008433911606517
 30
0.0
  0
VERTEX
  5
121B
  8
0
  6
BYBLOCK
 62
     0
 10
317.99772139598559
 20
85.004976911606491
 30
0.0
  0
VERTEX
  5
121C
  8
0
  6
BYBLOCK
 62
     0
 10
318.05748239598557
 20
85.001409911606515
 30
0.0
  0
VERTEX
  5
121D
  8
0
  6
BYBLOCK
 62
     0
 10
318.11722539598571
 20
84.997679911606497
 30
0.0
  0
VERTEX
  5
121E
  8
0
  6
BYBLOCK
 62
     0
 10
318.17694639598568
 20
84.993733911606569
 30
0.0
  0
VERTEX
  5
121F
  8
0
  6
BYBLOCK
 62
     0
 10
318.23663739598572
 20
84.989515911606418
 30
0.0
  0
VERTEX
  5
1220
  8
0
  6
BYBLOCK
 62
     0
 10
318.29629539598562
 20
84.984971911606522
 30
0.0
  0
VERTEX
  5
1221
  8
0
  6
BYBLOCK
 62
     0
 10
318.35591239598563
 20
84.980047911606434
 30
0.0
  0
VERTEX
  5
1222
  8
0
  6
BYBLOCK
 62
     0
 10
318.41548339598569
 20
84.974688911606549
 30
0.0
  0
VERTEX
  5
1223
  8
0
  6
BYBLOCK
 62
     0
 10
318.47500239598571
 20
84.968841911606447
 30
0.0
  0
VERTEX
  5
1224
  8
0
  6
BYBLOCK
 62
     0
 10
318.53446439598559
 20
84.96245291160642
 30
0.0
  0
VERTEX
  5
1225
  8
0
  6
BYBLOCK
 62
     0
 10
318.59386339598569
 20
84.955465911606439
 30
0.0
  0
VERTEX
  5
1226
  8
0
  6
BYBLOCK
 62
     0
 10
318.65319339598568
 20
84.947826911606512
 30
0.0
  0
VERTEX
  5
1227
  8
0
  6
BYBLOCK
 62
     0
 10
318.71244839598558
 20
84.939482911606433
 30
0.0
  0
VERTEX
  5
1228
  8
0
  6
BYBLOCK
 62
     0
 10
318.77162339598561
 20
84.930378911606454
 30
0.0
  0
VERTEX
  5
1229
  8
0
  6
BYBLOCK
 62
     0
 10
318.83071139598559
 20
84.920459911606486
 30
0.0
  0
VERTEX
  5
122A
  8
0
  6
BYBLOCK
 62
     0
 10
318.88970839598568
 20
84.909672911606549
 30
0.0
  0
VERTEX
  5
122B
  8
0
  6
BYBLOCK
 62
     0
 10
318.94860739598562
 20
84.897962911606442
 30
0.0
  0
VERTEX
  5
122C
  8
0
  6
BYBLOCK
 62
     0
 10
319.00740339598559
 20
84.885275911606513
 30
0.0
  0
VERTEX
  5
122D
  8
0
  6
BYBLOCK
 62
     0
 10
319.06609039598573
 20
84.871556911606504
 30
0.0
  0
VERTEX
  5
122E
  8
0
  6
BYBLOCK
 62
     0
 10
319.1246613959857
 20
84.856752911606463
 30
0.0
  0
VERTEX
  5
122F
  8
0
  6
BYBLOCK
 62
     0
 10
319.18311339598569
 20
84.840807911606475
 30
0.0
  0
VERTEX
  5
1230
  8
0
  6
BYBLOCK
 62
     0
 10
319.24143839598571
 20
84.823669911606444
 30
0.0
  0
VERTEX
  5
1231
  8
0
  6
BYBLOCK
 62
     0
 10
319.29963139598561
 20
84.805281911606471
 30
0.0
  0
VERTEX
  5
1232
  8
0
  6
BYBLOCK
 62
     0
 10
319.3576863959857
 20
84.785591911606389
 30
0.0
  0
VERTEX
  5
1233
  8
0
  6
BYBLOCK
 62
     0
 10
319.41559739598569
 20
84.764544911606436
 30
0.0
  0
VERTEX
  5
1234
  8
0
  6
BYBLOCK
 62
     0
 10
319.4733593959856
 20
84.742085911606509
 30
0.0
  0
VERTEX
  5
1235
  8
0
  6
BYBLOCK
 62
     0
 10
319.53096739598573
 20
84.718160911606446
 30
0.0
  0
VERTEX
  5
1236
  8
0
  6
BYBLOCK
 62
     0
 10
319.58841339598558
 20
84.692716911606453
 30
0.0
  0
VERTEX
  5
1237
  8
0
  6
BYBLOCK
 62
     0
 10
319.64569339598557
 20
84.665697911606458
 30
0.0
  0
VERTEX
  5
1238
  8
0
  6
BYBLOCK
 62
     0
 10
319.70279639598567
 20
84.63706791160655
 30
0.0
  0
VERTEX
  5
1239
  8
0
  6
BYBLOCK
 62
     0
 10
319.75969339598561
 20
84.606860911606532
 30
0.0
  0
VERTEX
  5
123A
  8
0
  6
BYBLOCK
 62
     0
 10
319.81634939598558
 20
84.575126911606489
 30
0.0
  0
VERTEX
  5
123B
  8
0
  6
BYBLOCK
 62
     0
 10
319.87273039598563
 20
84.541919911606442
 30
0.0
  0
VERTEX
  5
123C
  8
0
  6
BYBLOCK
 62
     0
 10
319.92880339598571
 20
84.507288911606452
 30
0.0
  0
VERTEX
  5
123D
  8
0
  6
BYBLOCK
 62
     0
 10
319.98453439598558
 20
84.471285911606515
 30
0.0
  0
VERTEX
  5
123E
  8
0
  6
BYBLOCK
 62
     0
 10
320.03988739598572
 20
84.433962911606386
 30
0.0
  0
VERTEX
  5
123F
  8
0
  6
BYBLOCK
 62
     0
 10
320.0948303959857
 20
84.395370911606392
 30
0.0
  0
VERTEX
  5
1240
  8
0
  6
BYBLOCK
 62
     0
 10
320.14932839598561
 20
84.355559911606534
 30
0.0
  0
VERTEX
  5
1241
  8
0
  6
BYBLOCK
 62
     0
 10
320.2033473959857
 20
84.314583911606505
 30
0.0
  0
VERTEX
  5
1242
  8
0
  6
BYBLOCK
 62
     0
 10
320.25685339598562
 20
84.272491911606494
 30
0.0
  0
VERTEX
  5
1243
  8
0
  6
BYBLOCK
 62
     0
 10
320.30981239598572
 20
84.229336911606424
 30
0.0
  0
VERTEX
  5
1244
  8
0
  6
BYBLOCK
 62
     0
 10
320.36218939598558
 20
84.185169911606522
 30
0.0
  0
VERTEX
  5
1245
  8
0
  6
BYBLOCK
 62
     0
 10
320.41395239598558
 20
84.140040911606434
 30
0.0
  0
VERTEX
  5
1246
  8
0
  6
BYBLOCK
 62
     0
 10
320.46506539598562
 20
84.094002911606495
 30
0.0
  0
VERTEX
  5
1247
  8
0
  6
BYBLOCK
 62
     0
 10
320.51549539598562
 20
84.047106911606534
 30
0.0
  0
VERTEX
  5
1248
  8
0
  6
BYBLOCK
 62
     0
 10
320.56520739598568
 20
83.999403911606464
 30
0.0
  0
VERTEX
  5
1249
  8
0
  6
BYBLOCK
 62
     0
 10
320.61416839598559
 20
83.950944911606484
 30
0.0
  0
VERTEX
  5
124A
  8
0
  6
BYBLOCK
 62
     0
 10
320.6623443959856
 20
83.901781911606463
 30
0.0
  0
VERTEX
  5
124B
  8
0
  6
BYBLOCK
 62
     0
 10
320.70969939598569
 20
83.851966911606496
 30
0.0
  0
VERTEX
  5
124C
  8
0
  6
BYBLOCK
 62
     0
 10
320.75620139598561
 20
83.801549911606457
 30
0.0
  0
VERTEX
  5
124D
  8
0
  6
BYBLOCK
 62
     0
 10
320.80181639598561
 20
83.750582911606443
 30
0.0
  0
VERTEX
  5
124E
  8
0
  6
BYBLOCK
 62
     0
 10
320.84650839598561
 20
83.699116911606424
 30
0.0
  0
VERTEX
  5
124F
  8
0
  6
BYBLOCK
 62
     0
 10
320.89024539598557
 20
83.647203911606425
 30
0.0
  0
VERTEX
  5
1250
  8
0
  6
BYBLOCK
 62
     0
 10
320.93299139598571
 20
83.594894911606488
 30
0.0
  0
VERTEX
  5
1251
  8
0
  6
BYBLOCK
 62
     0
 10
320.97471439598559
 20
83.542240911606427
 30
0.0
  0
VERTEX
  5
1252
  8
0
  6
BYBLOCK
 62
     0
 10
321.01537839598569
 20
83.489293911606524
 30
0.0
  0
VERTEX
  5
1253
  8
0
  6
BYBLOCK
 62
     0
 10
321.05495039598571
 20
83.436105911606546
 30
0.0
  0
VERTEX
  5
1254
  8
0
  6
BYBLOCK
 62
     0
 10
321.09339639598562
 20
83.382725911606485
 30
0.0
  0
VERTEX
  5
1255
  8
0
  6
BYBLOCK
 62
     0
 10
321.13068239598562
 20
83.329207911606446
 30
0.0
  0
VERTEX
  5
1256
  8
0
  6
BYBLOCK
 62
     0
 10
321.16678539598558
 20
83.275593911606506
 30
0.0
  0
VERTEX
  5
1257
  8
0
  6
BYBLOCK
 62
     0
 10
321.20173439598562
 20
83.221894911606455
 30
0.0
  0
VERTEX
  5
1258
  8
0
  6
BYBLOCK
 62
     0
 10
321.23556839598558
 20
83.168112911606386
 30
0.0
  0
VERTEX
  5
1259
  8
0
  6
BYBLOCK
 62
     0
 10
321.26832739598569
 20
83.114252911606499
 30
0.0
  0
VERTEX
  5
125A
  8
0
  6
BYBLOCK
 62
     0
 10
321.30005139598558
 20
83.060315911606494
 30
0.0
  0
VERTEX
  5
125B
  8
0
  6
BYBLOCK
 62
     0
 10
321.3307803959857
 20
83.00630691160643
 30
0.0
  0
VERTEX
  5
125C
  8
0
  6
BYBLOCK
 62
     0
 10
321.36055239598562
 20
82.952225911606547
 30
0.0
  0
VERTEX
  5
125D
  8
0
  6
BYBLOCK
 62
     0
 10
321.38941039598558
 20
82.898078911606476
 30
0.0
  0
VERTEX
  5
125E
  8
0
  6
BYBLOCK
 62
     0
 10
321.41739139598559
 20
82.843866911606483
 30
0.0
  0
VERTEX
  5
125F
  8
0
  6
BYBLOCK
 62
     0
 10
321.44453639598561
 20
82.789593911606516
 30
0.0
  0
VERTEX
  5
1260
  8
0
  6
BYBLOCK
 62
     0
 10
321.47088539598559
 20
82.735261911606457
 30
0.0
  0
VERTEX
  5
1261
  8
0
  6
BYBLOCK
 62
     0
 10
321.49647839598572
 20
82.680873911606454
 30
0.0
  0
VERTEX
  5
1262
  8
0
  6
BYBLOCK
 62
     0
 10
321.52135339598561
 20
82.626433911606554
 30
0.0
  0
VERTEX
  5
1263
  8
0
  6
BYBLOCK
 62
     0
 10
321.54555239598568
 20
82.57194291160647
 30
0.0
  0
VERTEX
  5
1264
  8
0
  6
BYBLOCK
 62
     0
 10
321.56911439598571
 20
82.517405911606488
 30
0.0
  0
VERTEX
  5
1265
  8
0
  6
BYBLOCK
 62
     0
 10
321.59207939598571
 20
82.462824911606504
 30
0.0
  0
VERTEX
  5
1266
  8
0
  6
BYBLOCK
 62
     0
 10
321.61448639598558
 20
82.408202911606494
 30
0.0
  0
VERTEX
  5
1267
  8
0
  6
BYBLOCK
 62
     0
 10
321.63637639598568
 20
82.353542911606496
 30
0.0
  0
VERTEX
  5
1268
  8
0
  6
BYBLOCK
 62
     0
 10
321.65778839598562
 20
82.298847911606458
 30
0.0
  0
VERTEX
  5
1269
  8
0
  6
BYBLOCK
 62
     0
 10
321.6787623959857
 20
82.244120911606387
 30
0.0
  0
VERTEX
  5
126A
  8
0
  6
BYBLOCK
 62
     0
 10
321.69933839598571
 20
82.189363911606506
 30
0.0
  0
VERTEX
  5
126B
  8
0
  6
BYBLOCK
 62
     0
 10
321.71955639598571
 20
82.134580911606463
 30
0.0
  0
VERTEX
  5
126C
  8
0
  6
BYBLOCK
 62
     0
 10
321.73945539598571
 20
82.079774911606464
 30
0.0
  0
VERTEX
  5
126D
  8
0
  6
BYBLOCK
 62
     0
 10
321.75907539598569
 20
82.024947911606546
 30
0.0
  0
VERTEX
  5
126E
  8
0
  6
BYBLOCK
 62
     0
 10
321.77845739598558
 20
81.970103911606444
 30
0.0
  0
VERTEX
  5
126F
  8
0
  6
BYBLOCK
 62
     0
 10
321.79764039598558
 20
81.915244911606464
 30
0.0
  0
VERTEX
  5
1270
  8
0
  6
BYBLOCK
 62
     0
 10
321.8166633959857
 20
81.860373911606416
 30
0.0
  0
VERTEX
  5
1271
  8
0
  6
BYBLOCK
 62
     0
 10
321.83556739598561
 20
81.805493911606504
 30
0.0
  0
VERTEX
  5
1272
  8
0
  6
BYBLOCK
 62
     0
 10
321.8543913959856
 20
81.750608911606491
 30
0.0
  0
VERTEX
  5
1273
  8
0
  6
BYBLOCK
 62
     0
 10
321.87317639598558
 20
81.695720911606486
 30
0.0
  0
SEQEND
  5
1274
  8
0
  6
BYBLOCK
 62
     0
  0
ARC
  5
113
  8
0
  6
BYBLOCK
 62
     0
 10
317.8781713959857
 20
81.898999911606424
 30
0.0
 40
2.0
 50
270.0
 51
0.0
  0
ARC
  5
114
  8
0
  6
BYBLOCK
 62
     0
 10
320.00302939598561
 20
79.398999911606424
 30
0.0
 40
3.0
 50
14.737203999999389
 51
51.995966999999531
  0
POLYLINE
  5
115
  8
0
  6
BYBLOCK
 62
     0
 66
     1
 10
0.0
 20
0.0
 30
0.0
  0
VERTEX
  5
1275
  8
0
  6
BYBLOCK
 62
     0
 10
319.87817139598559
 20
79.898999911606438
 30
0.0
  0
VERTEX
  5
1276
  8
0
  6
BYBLOCK
 62
     0
 10
319.91139639598561
 20
79.885219911606441
 30
0.0
  0
VERTEX
  5
1277
  8
0
  6
BYBLOCK
 62
     0
 10
319.94463639598558
 20
79.871404911606533
 30
0.0
  0
VERTEX
  5
1278
  8
0
  6
BYBLOCK
 62
     0
 10
319.97790239598561
 20
79.857520911606457
 30
0.0
  0
VERTEX
  5
1279
  8
0
  6
BYBLOCK
 62
     0
 10
320.0112093959857
 20
79.843533911606514
 30
0.0
  0
VERTEX
  5
127A
  8
0
  6
BYBLOCK
 62
     0
 10
320.04457139598571
 20
79.829408911606492
 30
0.0
  0
VERTEX
  5
127B
  8
0
  6
BYBLOCK
 62
     0
 10
320.07800039598561
 20
79.815109911606555
 30
0.0
  0
VERTEX
  5
127C
  8
0
  6
BYBLOCK
 62
     0
 10
320.1115113959857
 20
79.800604911606555
 30
0.0
  0
VERTEX
  5
127D
  8
0
  6
BYBLOCK
 62
     0
 10
320.14511839598561
 20
79.785857911606385
 30
0.0
  0
VERTEX
  5
127E
  8
0
  6
BYBLOCK
 62
     0
 10
320.17883339598569
 20
79.770833911606474
 30
0.0
  0
VERTEX
  5
127F
  8
0
  6
BYBLOCK
 62
     0
 10
320.21267039598558
 20
79.755499911606421
 30
0.0
  0
VERTEX
  5
1280
  8
0
  6
BYBLOCK
 62
     0
 10
320.2466443959857
 20
79.739819911606446
 30
0.0
  0
VERTEX
  5
1281
  8
0
  6
BYBLOCK
 62
     0
 10
320.28076739598561
 20
79.723759911606521
 30
0.0
  0
VERTEX
  5
1282
  8
0
  6
BYBLOCK
 62
     0
 10
320.31505339598561
 20
79.707285911606505
 30
0.0
  0
VERTEX
  5
1283
  8
0
  6
BYBLOCK
 62
     0
 10
320.34951739598557
 20
79.690361911606487
 30
0.0
  0
VERTEX
  5
1284
  8
0
  6
BYBLOCK
 62
     0
 10
320.38417039598562
 20
79.67295591160655
 30
0.0
  0
VERTEX
  5
1285
  8
0
  6
BYBLOCK
 62
     0
 10
320.41902839598572
 20
79.655030911606445
 30
0.0
  0
VERTEX
  5
1286
  8
0
  6
BYBLOCK
 62
     0
 10
320.45410339598561
 20
79.636552911606486
 30
0.0
  0
VERTEX
  5
1287
  8
0
  6
BYBLOCK
 62
     0
 10
320.48940939598572
 20
79.617487911606403
 30
0.0
  0
VERTEX
  5
1288
  8
0
  6
BYBLOCK
 62
     0
 10
320.52496039598572
 20
79.597801911606552
 30
0.0
  0
VERTEX
  5
1289
  8
0
  6
BYBLOCK
 62
     0
 10
320.56077039598563
 20
79.577458911606513
 30
0.0
  0
VERTEX
  5
128A
  8
0
  6
BYBLOCK
 62
     0
 10
320.59685239598571
 20
79.556425911606524
 30
0.0
  0
VERTEX
  5
128B
  8
0
  6
BYBLOCK
 62
     0
 10
320.63321939598558
 20
79.53466691160645
 30
0.0
  0
VERTEX
  5
128C
  8
0
  6
BYBLOCK
 62
     0
 10
320.66988539598572
 20
79.512148911606445
 30
0.0
  0
VERTEX
  5
128D
  8
0
  6
BYBLOCK
 62
     0
 10
320.70686439598569
 20
79.488835911606429
 30
0.0
  0
VERTEX
  5
128E
  8
0
  6
BYBLOCK
 62
     0
 10
320.74417039598558
 20
79.464693911606446
 30
0.0
  0
VERTEX
  5
128F
  8
0
  6
BYBLOCK
 62
     0
 10
320.78181539598557
 20
79.439688911606481
 30
0.0
  0
VERTEX
  5
1290
  8
0
  6
BYBLOCK
 62
     0
 10
320.81981439598559
 20
79.41378591160651
 30
0.0
  0
VERTEX
  5
1291
  8
0
  6
BYBLOCK
 62
     0
 10
320.85818039598558
 20
79.386949911606393
 30
0.0
  0
VERTEX
  5
1292
  8
0
  6
BYBLOCK
 62
     0
 10
320.8969273959857
 20
79.359146911606558
 30
0.0
  0
VERTEX
  5
1293
  8
0
  6
BYBLOCK
 62
     0
 10
320.93606939598561
 20
79.330342911606522
 30
0.0
  0
VERTEX
  5
1294
  8
0
  6
BYBLOCK
 62
     0
 10
320.97561439598559
 20
79.300513911606444
 30
0.0
  0
VERTEX
  5
1295
  8
0
  6
BYBLOCK
 62
     0
 10
321.01555339598559
 20
79.269683911606535
 30
0.0
  0
VERTEX
  5
1296
  8
0
  6
BYBLOCK
 62
     0
 10
321.05587339598571
 20
79.23788591160644
 30
0.0
  0
VERTEX
  5
1297
  8
0
  6
BYBLOCK
 62
     0
 10
321.0965603959857
 20
79.205155911606539
 30
0.0
  0
VERTEX
  5
1298
  8
0
  6
BYBLOCK
 62
     0
 10
321.13760139598571
 20
79.17152691160652
 30
0.0
  0
VERTEX
  5
1299
  8
0
  6
BYBLOCK
 62
     0
 10
321.17898239598571
 20
79.137035911606503
 30
0.0
  0
VERTEX
  5
129A
  8
0
  6
BYBLOCK
 62
     0
 10
321.22068939598557
 20
79.10171491160645
 30
0.0
  0
VERTEX
  5
129B
  8
0
  6
BYBLOCK
 62
     0
 10
321.26270939598561
 20
79.065599911606455
 30
0.0
  0
VERTEX
  5
129C
  8
0
  6
BYBLOCK
 62
     0
 10
321.30502839598557
 20
79.028724911606446
 30
0.0
  0
VERTEX
  5
129D
  8
0
  6
BYBLOCK
 62
     0
 10
321.34763339598561
 20
78.991124911606448
 30
0.0
  0
VERTEX
  5
129E
  8
0
  6
BYBLOCK
 62
     0
 10
321.3905103959857
 20
78.95283391160649
 30
0.0
  0
VERTEX
  5
129F
  8
0
  6
BYBLOCK
 62
     0
 10
321.43364539598559
 20
78.913886911606482
 30
0.0
  0
VERTEX
  5
12A0
  8
0
  6
BYBLOCK
 62
     0
 10
321.47702539598572
 20
78.874318911606451
 30
0.0
  0
VERTEX
  5
12A1
  8
0
  6
BYBLOCK
 62
     0
 10
321.5206363959856
 20
78.834162911606427
 30
0.0
  0
VERTEX
  5
12A2
  8
0
  6
BYBLOCK
 62
     0
 10
321.56446439598562
 20
78.793453911606434
 30
0.0
  0
VERTEX
  5
12A3
  8
0
  6
BYBLOCK
 62
     0
 10
321.60849739598558
 20
78.752227911606496
 30
0.0
  0
VERTEX
  5
12A4
  8
0
  6
BYBLOCK
 62
     0
 10
321.65272039598563
 20
78.710516911606419
 30
0.0
  0
VERTEX
  5
12A5
  8
0
  6
BYBLOCK
 62
     0
 10
321.69712039598568
 20
78.668357911606449
 30
0.0
  0
VERTEX
  5
12A6
  8
0
  6
BYBLOCK
 62
     0
 10
321.74168339598572
 20
78.625784911606502
 30
0.0
  0
VERTEX
  5
12A7
  8
0
  6
BYBLOCK
 62
     0
 10
321.78639639598561
 20
78.582830911606493
 30
0.0
  0
VERTEX
  5
12A8
  8
0
  6
BYBLOCK
 62
     0
 10
321.83124439598561
 20
78.539532911606443
 30
0.0
  0
VERTEX
  5
12A9
  8
0
  6
BYBLOCK
 62
     0
 10
321.8762153959857
 20
78.495922911606499
 30
0.0
  0
VERTEX
  5
12AA
  8
0
  6
BYBLOCK
 62
     0
 10
321.92129539598568
 20
78.452036911606456
 30
0.0
  0
VERTEX
  5
12AB
  8
0
  6
BYBLOCK
 62
     0
 10
321.9664703959856
 20
78.407909911606453
 30
0.0
  0
VERTEX
  5
12AC
  8
0
  6
BYBLOCK
 62
     0
 10
322.0117273959857
 20
78.363574911606406
 30
0.0
  0
VERTEX
  5
12AD
  8
0
  6
BYBLOCK
 62
     0
 10
322.05705139598558
 20
78.319066911606456
 30
0.0
  0
VERTEX
  5
12AE
  8
0
  6
BYBLOCK
 62
     0
 10
322.10243039598572
 20
78.27442191160651
 30
0.0
  0
VERTEX
  5
12AF
  8
0
  6
BYBLOCK
 62
     0
 10
322.1478503959857
 20
78.229671911606488
 30
0.0
  0
VERTEX
  5
12B0
  8
0
  6
BYBLOCK
 62
     0
 10
322.19329739598561
 20
78.18485391160641
 30
0.0
  0
VERTEX
  5
12B1
  8
0
  6
BYBLOCK
 62
     0
 10
322.23875839598571
 20
78.140001911606532
 30
0.0
  0
SEQEND
  5
12B2
  8
0
  6
BYBLOCK
 62
     0
  0
ARC
  5
116
  8
0
  6
BYBLOCK
 62
     0
 10
290.16376039598572
 20
64.898999911606438
 30
0.0
 40
35.0
 50
348.46304100000032
 51
11.537009999999301
  0
ARC
  5
117
  8
0
  6
BYBLOCK
 62
     0
 10
264.8781713959857
 20
64.898999911606438
 30
0.0
 40
60.0
 50
345.26279600000061
 51
353.20407600000118
  0
POLYLINE
  5
118
  8
0
  6
BYBLOCK
 62
     0
 66
     1
 10
0.0
 20
0.0
 30
0.0
  0
VERTEX
  5
12B3
  8
0
  6
BYBLOCK
 62
     0
 10
321.85018039598572
 20
81.762901911606491
 30
0.0
  0
VERTEX
  5
12B4
  8
0
  6
BYBLOCK
 62
     0
 10
321.86080239598567
 20
81.728754911606515
 30
0.0
  0
VERTEX
  5
12B5
  8
0
  6
BYBLOCK
 62
     0
 10
321.87141939598558
 20
81.694613911606552
 30
0.0
  0
VERTEX
  5
12B6
  8
0
  6
BYBLOCK
 62
     0
 10
321.88202639598569
 20
81.660483911606548
 30
0.0
  0
VERTEX
  5
12B7
  8
0
  6
BYBLOCK
 62
     0
 10
321.89261939598561
 20
81.626369911606517
 30
0.0
  0
VERTEX
  5
12B8
  8
0
  6
BYBLOCK
 62
     0
 10
321.90319239598563
 20
81.592278911606385
 30
0.0
  0
VERTEX
  5
12B9
  8
0
  6
BYBLOCK
 62
     0
 10
321.9137413959856
 20
81.558214911606456
 30
0.0
  0
VERTEX
  5
12BA
  8
0
  6
BYBLOCK
 62
     0
 10
321.9242603959857
 20
81.52418491160654
 30
0.0
  0
VERTEX
  5
12BB
  8
0
  6
BYBLOCK
 62
     0
 10
321.93474639598571
 20
81.490192911606528
 30
0.0
  0
VERTEX
  5
12BC
  8
0
  6
BYBLOCK
 62
     0
 10
321.94519239598571
 20
81.456244911606504
 30
0.0
  0
VERTEX
  5
12BD
  8
0
  6
BYBLOCK
 62
     0
 10
321.95559539598571
 20
81.422346911606496
 30
0.0
  0
VERTEX
  5
12BE
  8
0
  6
BYBLOCK
 62
     0
 10
321.96594939598572
 20
81.388503911606435
 30
0.0
  0
VERTEX
  5
12BF
  8
0
  6
BYBLOCK
 62
     0
 10
321.97624939598558
 20
81.354722911606473
 30
0.0
  0
VERTEX
  5
12C0
  8
0
  6
BYBLOCK
 62
     0
 10
321.98649139598558
 20
81.321006911606446
 30
0.0
  0
VERTEX
  5
12C1
  8
0
  6
BYBLOCK
 62
     0
 10
321.99667039598557
 20
81.287363911606462
 30
0.0
  0
VERTEX
  5
12C2
  8
0
  6
BYBLOCK
 62
     0
 10
322.00678039598569
 20
81.253796911606514
 30
0.0
  0
VERTEX
  5
12C3
  8
0
  6
BYBLOCK
 62
     0
 10
322.01681739598558
 20
81.220313911606453
 30
0.0
  0
VERTEX
  5
12C4
  8
0
  6
BYBLOCK
 62
     0
 10
322.02677739598568
 20
81.18691891160654
 30
0.0
  0
VERTEX
  5
12C5
  8
0
  6
BYBLOCK
 62
     0
 10
322.0366533959857
 20
81.153617911606489
 30
0.0
  0
VERTEX
  5
12C6
  8
0
  6
BYBLOCK
 62
     0
 10
322.04644239598571
 20
81.120416911606412
 30
0.0
  0
VERTEX
  5
12C7
  8
0
  6
BYBLOCK
 62
     0
 10
322.05613939598561
 20
81.087320911606412
 30
0.0
  0
VERTEX
  5
12C8
  8
0
  6
BYBLOCK
 62
     0
 10
322.06573839598559
 20
81.054334911606475
 30
0.0
  0
VERTEX
  5
12C9
  8
0
  6
BYBLOCK
 62
     0
 10
322.07523539598571
 20
81.021464911606472
 30
0.0
  0
VERTEX
  5
12CA
  8
0
  6
BYBLOCK
 62
     0
 10
322.0846243959856
 20
80.988716911606375
 30
0.0
  0
VERTEX
  5
12CB
  8
0
  6
BYBLOCK
 62
     0
 10
322.09390239598571
 20
80.956095911606425
 30
0.0
  0
VERTEX
  5
12CC
  8
0
  6
BYBLOCK
 62
     0
 10
322.10306339598571
 20
80.923607911606496
 30
0.0
  0
VERTEX
  5
12CD
  8
0
  6
BYBLOCK
 62
     0
 10
322.11210239598569
 20
80.891257911606431
 30
0.0
  0
VERTEX
  5
12CE
  8
0
  6
BYBLOCK
 62
     0
 10
322.12101439598558
 20
80.859051911606457
 30
0.0
  0
VERTEX
  5
12CF
  8
0
  6
BYBLOCK
 62
     0
 10
322.12979539598558
 20
80.826994911606434
 30
0.0
  0
VERTEX
  5
12D0
  8
0
  6
BYBLOCK
 62
     0
 10
322.1384403959857
 20
80.795091911606391
 30
0.0
  0
VERTEX
  5
12D1
  8
0
  6
BYBLOCK
 62
     0
 10
322.1469433959856
 20
80.763349911606497
 30
0.0
  0
SEQEND
  5
12D2
  8
0
  6
BYBLOCK
 62
     0
  0
ARC
  5
119
  8
0
  6
BYBLOCK
 62
     0
 10
264.8781713959857
 20
64.898999911606438
 30
0.0
 40
60.0
 50
6.7959239999987631
 51
14.737203999999389
  0
ARC
  5
11A
  8
0
  6
BYBLOCK
 62
     0
 10
317.8781713959857
 20
83.011837911606435
 30
0.0
 40
2.0
 50
0.0
 51
90.0
  0
LINE
  5
11B
  8
0
  6
BYBLOCK
 62
     0
 10
319.87817139598559
 20
83.011837911606435
 30
0.0
 11
319.87817139598559
 21
81.898999911606424
 31
0.0
  0
POLYLINE
  5
11C
  8
0
  6
BYBLOCK
 62
     0
 66
     1
 10
0.0
 20
0.0
 30
0.0
  0
VERTEX
  5
12D3
  8
0
  6
BYBLOCK
 62
     0
 10
267.00795139598557
 20
280.55245891160649
 30
0.0
  0
VERTEX
  5
12D4
  8
0
  6
BYBLOCK
 62
     0
 10
266.68921539598563
 20
282.20211691160642
 30
0.0
  0
VERTEX
  5
12D5
  8
0
  6
BYBLOCK
 62
     0
 10
265.74270339598559
 20
283.80164991160638
 30
0.0
  0
VERTEX
  5
12D6
  8
0
  6
BYBLOCK
 62
     0
 10
264.19717539598571
 20
285.30245691160638
 30
0.0
  0
VERTEX
  5
12D7
  8
0
  6
BYBLOCK
 62
     0
 10
262.09959139598573
 20
286.65893791160642
 30
0.0
  0
VERTEX
  5
12D8
  8
0
  6
BYBLOCK
 62
     0
 10
259.5136863959857
 20
287.82987591160651
 30
0.0
  0
VERTEX
  5
12D9
  8
0
  6
BYBLOCK
 62
     0
 10
256.51802939598559
 20
288.77969191160628
 30
0.0
  0
VERTEX
  5
12DA
  8
0
  6
BYBLOCK
 62
     0
 10
253.20364439598569
 20
289.47952791160651
 30
0.0
  0
VERTEX
  5
12DB
  8
0
  6
BYBLOCK
 62
     0
 10
249.6712363959856
 20
289.90811891160638
 30
0.0
  0
VERTEX
  5
12DC
  8
0
  6
BYBLOCK
 62
     0
 10
246.0281353959856
 20
290.05244291160642
 30
0.0
  0
VERTEX
  5
12DD
  8
0
  6
BYBLOCK
 62
     0
 10
242.3850353959856
 20
289.90811391160651
 30
0.0
  0
VERTEX
  5
12DE
  8
0
  6
BYBLOCK
 62
     0
 10
238.85262939598559
 20
289.47951691160642
 30
0.0
  0
VERTEX
  5
12DF
  8
0
  6
BYBLOCK
 62
     0
 10
235.5382493959857
 20
288.77967591160649
 30
0.0
  0
VERTEX
  5
12E0
  8
0
  6
BYBLOCK
 62
     0
 10
232.54260039598569
 20
287.82985391160651
 30
0.0
  0
VERTEX
  5
12E1
  8
0
  6
BYBLOCK
 62
     0
 10
229.9567043959857
 20
286.65891191160642
 30
0.0
  0
VERTEX
  5
12E2
  8
0
  6
BYBLOCK
 62
     0
 10
227.8591303959856
 20
285.30242791160651
 30
0.0
  0
VERTEX
  5
12E3
  8
0
  6
BYBLOCK
 62
     0
 10
226.3136143959857
 20
283.80161891160651
 30
0.0
  0
VERTEX
  5
12E4
  8
0
  6
BYBLOCK
 62
     0
 10
225.36711539598571
 20
282.20208391160651
 30
0.0
  0
VERTEX
  5
12E5
  8
0
  6
BYBLOCK
 62
     0
 10
225.04839139598559
 20
280.55245891160649
 30
0.0
  0
SEQEND
  5
12E6
  8
0
  6
BYBLOCK
 62
     0
  0
POLYLINE
  5
11D
  8
0
  6
BYBLOCK
 62
     0
 66
     1
 10
0.0
 20
0.0
 30
0.0
  0
VERTEX
  5
12E7
  8
0
  6
BYBLOCK
 62
     0
 10
270.8274243959857
 20
274.9969309116064
 30
0.0
  0
VERTEX
  5
12E8
  8
0
  6
BYBLOCK
 62
     0
 10
267.93686439598571
 20
276.07864791160648
 30
0.0
  0
VERTEX
  5
12E9
  8
0
  6
BYBLOCK
 62
     0
 10
264.38062039598572
 20
277.01106291160642
 30
0.0
  0
VERTEX
  5
12EA
  8
0
  6
BYBLOCK
 62
     0
 10
260.26674539598571
 20
277.76584491160639
 30
0.0
  0
VERTEX
  5
12EB
  8
0
  6
BYBLOCK
 62
     0
 10
255.7202393959856
 20
278.32005891160651
 30
0.0
  0
VERTEX
  5
12EC
  8
0
  6
BYBLOCK
 62
     0
 10
250.87924439598569
 20
278.65686591160642
 30
0.0
  0
VERTEX
  5
12ED
  8
0
  6
BYBLOCK
 62
     0
 10
245.8908523959856
 20
278.76603191160638
 30
0.0
  0
VERTEX
  5
12EE
  8
0
  6
BYBLOCK
 62
     0
 10
240.90663339598561
 20
278.6442419116064
 30
0.0
  0
VERTEX
  5
12EF
  8
0
  6
BYBLOCK
 62
     0
 10
236.07802839598571
 20
278.29519391160642
 30
0.0
  0
VERTEX
  5
12F0
  8
0
  6
BYBLOCK
 62
     0
 10
231.5517543959856
 20
277.72949491160642
 30
0.0
  0
VERTEX
  5
12F1
  8
0
  6
BYBLOCK
 62
     0
 10
227.46533839598561
 20
276.96433291160639
 30
0.0
  0
VERTEX
  5
12F2
  8
0
  6
BYBLOCK
 62
     0
 10
223.94294439598571
 20
276.0229569116064
 30
0.0
  0
VERTEX
  5
12F3
  8
0
  6
BYBLOCK
 62
     0
 10
221.22891839598569
 20
274.9969309116064
 30
0.0
  0
SEQEND
  5
12F4
  8
0
  6
BYBLOCK
 62
     0
  0
ARC
  5
11E
  8
0
  6
BYBLOCK
 62
     0
 10
246.02817139598571
 20
236.58193591160651
 30
0.0
 40
45.724334999999989
 50
57.155259000000193
 51
122.8447409999998
  0
ARC
  5
11F
  8
0
  6
BYBLOCK
 62
     0
 10
259.62091539598561
 20
269.33038391160648
 30
0.0
 40
5.4072559999999994
 50
269.0172309999997
 51
90.982769000000204
  0
POLYLINE
  5
120
  8
0
  6
BYBLOCK
 62
     0
 66
     1
 10
0.0
 20
0.0
 30
0.0
  0
VERTEX
  5
12F5
  8
0
  6
BYBLOCK
 62
     0
 10
259.52817139598568
 20
274.7368439116064
 30
0.0
  0
VERTEX
  5
12F6
  8
0
  6
BYBLOCK
 62
     0
 10
254.92213239598561
 20
275.25546991160638
 30
0.0
  0
VERTEX
  5
12F7
  8
0
  6
BYBLOCK
 62
     0
 10
250.0458543959856
 20
275.55449291160647
 30
0.0
  0
VERTEX
  5
12F8
  8
0
  6
BYBLOCK
 62
     0
 10
245.04750139598559
 20
275.62482791160647
 30
0.0
  0
VERTEX
  5
12F9
  8
0
  6
BYBLOCK
 62
     0
 10
240.07894639598561
 20
275.46433691160638
 30
0.0
  0
VERTEX
  5
12FA
  8
0
  6
BYBLOCK
 62
     0
 10
235.29115439598559
 20
275.07789791160639
 30
0.0
  0
VERTEX
  5
12FB
  8
0
  6
BYBLOCK
 62
     0
 10
232.52817139598559
 20
274.7368439116064
 30
0.0
  0
SEQEND
  5
12FC
  8
0
  6
BYBLOCK
 62
     0
  0
POLYLINE
  5
121
  8
0
  6
BYBLOCK
 62
     0
 66
     1
 10
0.0
 20
0.0
 30
0.0
  0
VERTEX
  5
12FD
  8
0
  6
BYBLOCK
 62
     0
 10
259.52817139598568
 20
263.9239229116065
 30
0.0
  0
VERTEX
  5
12FE
  8
0
  6
BYBLOCK
 62
     0
 10
254.92213239598561
 20
264.44254791160648
 30
0.0
  0
VERTEX
  5
12FF
  8
0
  6
BYBLOCK
 62
     0
 10
250.0458543959856
 20
264.7415709116064
 30
0.0
  0
VERTEX
  5
1300
  8
0
  6
BYBLOCK
 62
     0
 10
245.04750139598559
 20
264.8119059116064
 30
0.0
  0
VERTEX
  5
1301
  8
0
  6
BYBLOCK
 62
     0
 10
240.07894639598561
 20
264.65141591160648
 30
0.0
  0
VERTEX
  5
1302
  8
0
  6
BYBLOCK
 62
     0
 10
235.29115439598559
 20
264.26497591160643
 30
0.0
  0
VERTEX
  5
1303
  8
0
  6
BYBLOCK
 62
     0
 10
232.52817139598559
 20
263.9239229116065
 30
0.0
  0
SEQEND
  5
1304
  8
0
  6
BYBLOCK
 62
     0
  0
POLYLINE
  5
122
  8
0
  6
BYBLOCK
 62
     0
 66
     1
 10
0.0
 20
0.0
 30
0.0
  0
VERTEX
  5
1305
  8
0
  6
BYBLOCK
 62
     0
 10
241.53748139598559
 20
275.62926191160642
 30
0.0
  0
VERTEX
  5
1306
  8
0
  6
BYBLOCK
 62
     0
 10
240.05064339598559
 20
275.55102191160648
 30
0.0
  0
VERTEX
  5
1307
  8
0
  6
BYBLOCK
 62
     0
 10
238.60898139598561
 20
275.3186789116063
 30
0.0
  0
VERTEX
  5
1308
  8
0
  6
BYBLOCK
 62
     0
 10
237.25630139598559
 20
274.9392929116064
 30
0.0
  0
VERTEX
  5
1309
  8
0
  6
BYBLOCK
 62
     0
 10
236.03370239598561
 20
274.42439091160639
 30
0.0
  0
VERTEX
  5
130A
  8
0
  6
BYBLOCK
 62
     0
 10
234.97833339598569
 20
273.7896179116064
 30
0.0
  0
VERTEX
  5
130B
  8
0
  6
BYBLOCK
 62
     0
 10
234.12226039598559
 20
273.05426191160637
 30
0.0
  0
VERTEX
  5
130C
  8
0
  6
BYBLOCK
 62
     0
 10
233.4914943959856
 20
272.24066591160641
 30
0.0
  0
VERTEX
  5
130D
  8
0
  6
BYBLOCK
 62
     0
 10
233.1052023959856
 20
271.3735499116064
 30
0.0
  0
VERTEX
  5
130E
  8
0
  6
BYBLOCK
 62
     0
 10
232.97512139598561
 20
270.47926191160639
 30
0.0
  0
VERTEX
  5
130F
  8
0
  6
BYBLOCK
 62
     0
 10
233.1052023959856
 20
269.58497391160643
 30
0.0
  0
VERTEX
  5
1310
  8
0
  6
BYBLOCK
 62
     0
 10
233.4914943959856
 20
268.71785791160642
 30
0.0
  0
VERTEX
  5
1311
  8
0
  6
BYBLOCK
 62
     0
 10
234.12226039598559
 20
267.9042619116064
 30
0.0
  0
VERTEX
  5
1312
  8
0
  6
BYBLOCK
 62
     0
 10
234.97833339598569
 20
267.16890591160649
 30
0.0
  0
VERTEX
  5
1313
  8
0
  6
BYBLOCK
 62
     0
 10
236.03370239598561
 20
266.53413291160638
 30
0.0
  0
VERTEX
  5
1314
  8
0
  6
BYBLOCK
 62
     0
 10
237.25630139598559
 20
266.01923091160648
 30
0.0
  0
VERTEX
  5
1315
  8
0
  6
BYBLOCK
 62
     0
 10
238.60898139598561
 20
265.63984491160642
 30
0.0
  0
VERTEX
  5
1316
  8
0
  6
BYBLOCK
 62
     0
 10
240.05064339598559
 20
265.4075019116064
 30
0.0
  0
VERTEX
  5
1317
  8
0
  6
BYBLOCK
 62
     0
 10
241.53748139598559
 20
265.32926191160641
 30
0.0
  0
SEQEND
  5
1318
  8
0
  6
BYBLOCK
 62
     0
  0
LINE
  5
123
  8
0
  6
BYBLOCK
 62
     0
 10
224.67191039598561
 20
277.01243091160649
 30
0.0
 11
225.04838939598559
 21
280.55244291160648
 31
0.0
  0
ARC
  5
124
  8
0
  6
BYBLOCK
 62
     0
 10
232.4354273959857
 20
269.33038391160648
 30
0.0
 40
5.4072559999999994
 50
89.017230999999782
 51
270.98276900000019
  0
POLYLINE
  5
125
  8
0
  6
BYBLOCK
 62
     0
 66
     1
 10
0.0
 20
0.0
 30
0.0
  0
VERTEX
  5
1319
  8
0
  6
BYBLOCK
 62
     0
 10
221.22891839598569
 20
274.9969309116064
 30
0.0
  0
VERTEX
  5
131A
  8
0
  6
BYBLOCK
 62
     0
 10
219.09187139598561
 20
273.79877791160652
 30
0.0
  0
VERTEX
  5
131B
  8
0
  6
BYBLOCK
 62
     0
 10
217.77327039598561
 20
272.52059491160651
 30
0.0
  0
VERTEX
  5
131C
  8
0
  6
BYBLOCK
 62
     0
 10
217.31317939598571
 20
271.20121891160642
 30
0.0
  0
VERTEX
  5
131D
  8
0
  6
BYBLOCK
 62
     0
 10
217.3128513959856
 20
271.16486991160639
 30
0.0
  0
SEQEND
  5
131E
  8
0
  6
BYBLOCK
 62
     0
  0
POLYLINE
  5
126
  8
0
  6
BYBLOCK
 62
     0
 66
     1
 10
0.0
 20
0.0
 30
0.0
  0
VERTEX
  5
131F
  8
0
  6
BYBLOCK
 62
     0
 10
250.5188613959856
 20
265.32926191160641
 30
0.0
  0
VERTEX
  5
1320
  8
0
  6
BYBLOCK
 62
     0
 10
252.0056993959856
 20
265.4075019116064
 30
0.0
  0
VERTEX
  5
1321
  8
0
  6
BYBLOCK
 62
     0
 10
253.44736139598561
 20
265.63984491160642
 30
0.0
  0
VERTEX
  5
1322
  8
0
  6
BYBLOCK
 62
     0
 10
254.80004139598569
 20
266.01923091160648
 30
0.0
  0
VERTEX
  5
1323
  8
0
  6
BYBLOCK
 62
     0
 10
256.02264039598572
 20
266.53413291160638
 30
0.0
  0
VERTEX
  5
1324
  8
0
  6
BYBLOCK
 62
     0
 10
257.07800939598559
 20
267.16890591160649
 30
0.0
  0
VERTEX
  5
1325
  8
0
  6
BYBLOCK
 62
     0
 10
257.93408239598563
 20
267.9042619116064
 30
0.0
  0
VERTEX
  5
1326
  8
0
  6
BYBLOCK
 62
     0
 10
258.56484839598568
 20
268.71785791160642
 30
0.0
  0
VERTEX
  5
1327
  8
0
  6
BYBLOCK
 62
     0
 10
258.9511403959857
 20
269.58497391160643
 30
0.0
  0
VERTEX
  5
1328
  8
0
  6
BYBLOCK
 62
     0
 10
259.08122139598572
 20
270.47926191160639
 30
0.0
  0
VERTEX
  5
1329
  8
0
  6
BYBLOCK
 62
     0
 10
258.9511403959857
 20
271.3735499116064
 30
0.0
  0
VERTEX
  5
132A
  8
0
  6
BYBLOCK
 62
     0
 10
258.56484839598568
 20
272.24066591160641
 30
0.0
  0
VERTEX
  5
132B
  8
0
  6
BYBLOCK
 62
     0
 10
257.93408239598563
 20
273.05426191160637
 30
0.0
  0
VERTEX
  5
132C
  8
0
  6
BYBLOCK
 62
     0
 10
257.07800939598559
 20
273.7896179116064
 30
0.0
  0
VERTEX
  5
132D
  8
0
  6
BYBLOCK
 62
     0
 10
256.02264039598572
 20
274.42439091160639
 30
0.0
  0
VERTEX
  5
132E
  8
0
  6
BYBLOCK
 62
     0
 10
254.80004139598569
 20
274.9392929116064
 30
0.0
  0
VERTEX
  5
132F
  8
0
  6
BYBLOCK
 62
     0
 10
253.44736139598561
 20
275.3186789116063
 30
0.0
  0
VERTEX
  5
1330
  8
0
  6
BYBLOCK
 62
     0
 10
252.0056993959856
 20
275.55102191160648
 30
0.0
  0
VERTEX
  5
1331
  8
0
  6
BYBLOCK
 62
     0
 10
250.5188613959856
 20
275.62926191160642
 30
0.0
  0
SEQEND
  5
1332
  8
0
  6
BYBLOCK
 62
     0
  0
LINE
  5
127
  8
0
  6
BYBLOCK
 62
     0
 10
241.53748139598559
 20
265.32926191160641
 30
0.0
 11
250.5188613959856
 21
265.32926191160641
 31
0.0
  0
LINE
  5
128
  8
0
  6
BYBLOCK
 62
     0
 10
267.3844323959857
 20
277.01243091160649
 30
0.0
 11
267.00795339598562
 21
280.55244291160648
 31
0.0
  0
POLYLINE
  5
129
  8
0
  6
BYBLOCK
 62
     0
 66
     1
 10
0.0
 20
0.0
 30
0.0
  0
VERTEX
  5
1333
  8
0
  6
BYBLOCK
 62
     0
 10
274.74349139598559
 20
271.16486991160639
 30
0.0
  0
VERTEX
  5
1334
  8
0
  6
BYBLOCK
 62
     0
 10
274.30724139598561
 20
272.48481291160641
 30
0.0
  0
VERTEX
  5
1335
  8
0
  6
BYBLOCK
 62
     0
 10
273.01174539598571
 20
273.76464991160628
 30
0.0
  0
VERTEX
  5
1336
  8
0
  6
BYBLOCK
 62
     0
 10
270.89636839598558
 20
274.96549491160641
 30
0.0
  0
VERTEX
  5
1337
  8
0
  6
BYBLOCK
 62
     0
 10
270.8274243959857
 20
274.9969309116064
 30
0.0
  0
SEQEND
  5
1338
  8
0
  6
BYBLOCK
 62
     0
  0
ENDSEC
  0
EOF
