  0
SECTION
  2
HEADER
  9
$ACADVER
  1
AC1009
  9
$INSBASE
 10
178.50274991741131
 20
27.570221980467071
 30
0.0
  9
$EXTMIN
 10
150.0600000949423
 20
27.570221980467071
 30
0.0
  9
$EXTMAX
 10
452.15937258460599
 20
270.74005130977628
 30
0.0
  9
$LIMMIN
 10
0.0
 20
0.0
  9
$LIMMAX
 10
420.0
 20
297.0
  9
$ORTHOMODE
 70
     0
  9
$REGENMODE
 70
     1
  9
$FILLMODE
 70
     1
  9
$QTEXTMODE
 70
     0
  9
$MIRRTEXT
 70
     1
  9
$DRAGMODE
 70
     2
  9
$LTSCALE
 40
1.0
  9
$OSMODE
 70
    55
  9
$ATTMODE
 70
     1
  9
$TEXTSIZE
 40
2.5
  9
$TRACEWID
 40
1.0
  9
$TEXTSTYLE
  7
STANDARD
  9
$CLAYER
  8
0
  9
$CELTYPE
  6
BYLAYER
  9
$CECOLOR
 62
   256
  9
$DIMSCALE
 40
1.0
  9
$DIMASZ
 40
2.5
  9
$DIMEXO
 40
0.625
  9
$DIMDLI
 40
3.75
  9
$DIMRND
 40
0.0
  9
$DIMDLE
 40
0.0
  9
$DIMEXE
 40
1.25
  9
$DIMTP
 40
0.0
  9
$DIMTM
 40
0.0
  9
$DIMTXT
 40
2.5
  9
$DIMCEN
 40
2.5
  9
$DIMTSZ
 40
0.0
  9
$DIMTOL
 70
     0
  9
$DIMLIM
 70
     0
  9
$DIMTIH
 70
     0
  9
$DIMTOH
 70
     0
  9
$DIMSE1
 70
     0
  9
$DIMSE2
 70
     0
  9
$DIMTAD
 70
     1
  9
$DIMZIN
 70
     8
  9
$DIMBLK
  1

  9
$DIMASO
 70
     1
  9
$DIMSHO
 70
     1
  9
$DIMPOST
  1

  9
$DIMAPOST
  1

  9
$DIMALT
 70
     0
  9
$DIMALTD
 70
     3
  9
$DIMALTF
 40
0.03937007874016
  9
$DIMLFAC
 40
1.0
  9
$DIMTOFL
 70
     1
  9
$DIMTVP
 40
0.0
  9
$DIMTIX
 70
     0
  9
$DIMSOXD
 70
     0
  9
$DIMSAH
 70
     0
  9
$DIMBLK1
  1

  9
$DIMBLK2
  1

  9
$DIMSTYLE
  2
ISO-25
  9
$DIMCLRD
 70
     0
  9
$DIMCLRE
 70
     0
  9
$DIMCLRT
 70
     0
  9
$DIMTFAC
 40
1.0
  9
$DIMGAP
 40
0.625
  9
$LUNITS
 70
     2
  9
$LUPREC
 70
     4
  9
$SKETCHINC
 40
1.0
  9
$FILLETRAD
 40
10.0
  9
$AUNITS
 70
     0
  9
$AUPREC
 70
     0
  9
$MENU
  1
.
  9
$ELEVATION
 40
0.0
  9
$PELEVATION
 40
0.0
  9
$THICKNESS
 40
0.0
  9
$LIMCHECK
 70
     0
  9
$BLIPMODE
 70
     0
  9
$CHAMFERA
 40
10.0
  9
$CHAMFERB
 40
10.0
  9
$SKPOLY
 70
     0
  9
$TDCREATE
 40
2453440.8898205319
  9
$TDUPDATE
 40
2453440.8923735409
  9
$TDINDWG
 40
0.0025546296
  9
$TDUSRTIMER
 40
0.0025546296
  9
$USRTIMER
 70
     1
  9
$ANGBASE
 50
0.0
  9
$ANGDIR
 70
     0
  9
$PDMODE
 70
     0
  9
$PDSIZE
 40
0.0
  9
$PLINEWID
 40
0.0
  9
$COORDS
 70
     1
  9
$SPLFRAME
 70
     0
  9
$SPLINETYPE
 70
     6
  9
$SPLINESEGS
 70
     8
  9
$ATTDIA
 70
     0
  9
$ATTREQ
 70
     1
  9
$HANDLING
 70
 10241
  9
$HANDSEED
  5
F8
  9
$SURFTAB1
 70
     6
  9
$SURFTAB2
 70
     6
  9
$SURFTYPE
 70
     6
  9
$SURFU
 70
     6
  9
$SURFV
 70
     6
  9
$UCSNAME
  2

  9
$UCSORG
 10
0.0
 20
0.0
 30
0.0
  9
$UCSXDIR
 10
1.0
 20
0.0
 30
0.0
  9
$UCSYDIR
 10
0.0
 20
1.0
 30
0.0
  9
$PUCSNAME
  2

  9
$PUCSORG
 10
0.0
 20
0.0
 30
0.0
  9
$PUCSXDIR
 10
1.0
 20
0.0
 30
0.0
  9
$PUCSYDIR
 10
0.0
 20
1.0
 30
0.0
  9
$USERI1
 70
     0
  9
$USERI2
 70
     0
  9
$USERI3
 70
     0
  9
$USERI4
 70
     0
  9
$USERI5
 70
     0
  9
$USERR1
 40
0.0
  9
$USERR2
 40
0.0
  9
$USERR3
 40
0.0
  9
$USERR4
 40
0.0
  9
$USERR5
 40
0.0
  9
$WORLDVIEW
 70
     1
  9
$SHADEDGE
 70
     3
  9
$SHADEDIF
 70
    70
  9
$TILEMODE
 70
     1
  9
$MAXACTVP
 70
    64
  9
$PLIMCHECK
 70
     0
  9
$PEXTMIN
 10
1.0000000000000000E+020
 20
1.0000000000000000E+020
 30
1.0000000000000000E+020
  9
$PEXTMAX
 10
-1.0000000000000000E+020
 20
-1.0000000000000000E+020
 30
-1.0000000000000000E+020
  9
$PLIMMIN
 10
0.0
 20
0.0
  9
$PLIMMAX
 10
420.0
 20
297.0
  9
$UNITMODE
 70
     0
  9
$VISRETAIN
 70
     1
  9
$PLINEGEN
 70
     0
  9
$PSLTSCALE
 70
     1
  0
ENDSEC
  0
SECTION
  2
TABLES
  0
TABLE
  2
VPORT
 70
     4
  0
VPORT
  2
*ACTIVE
 70
     0
 10
0.0
 20
0.0
 11
1.0
 21
1.0
 12
282.12024048096191
 22
148.5
 13
0.0
 23
0.0
 14
10.0
 24
10.0
 15
10.0
 25
10.0
 16
0.0
 26
0.0
 36
1.0
 17
0.0
 27
0.0
 37
0.0
 40
297.12476330271357
 41
1.899799599198396
 42
50.0
 43
0.0
 44
0.0
 50
0.0
 51
0.0
 71
     0
 72
   100
 73
     1
 74
     3
 75
     0
 76
     0
 77
     0
 78
     0
  0
ENDTAB
  0
TABLE
  2
LTYPE
 70
     1
  0
LTYPE
  2
CONTINUOUS
 70
     0
  3
Solid line
 72
    65
 73
     0
 40
0.0
  0
ENDTAB
  0
TABLE
  2
LAYER
 70
     2
  0
LAYER
  2
0
 70
     0
 62
     7
  6
CONTINUOUS
  0
LAYER
  2
M1
 70
     0
 62
     3
  6
CONTINUOUS
  0
ENDTAB
  0
TABLE
  2
STYLE
 70
     1
  0
STYLE
  2
STANDARD
 70
     0
 40
0.0
 41
1.0
 50
0.0
 71
     0
 42
2.5
  3
romant.shx
  4
bigfont.shx
  0
ENDTAB
  0
TABLE
  2
VIEW
 70
     0
  0
ENDTAB
  0
TABLE
  2
UCS
 70
     0
  0
ENDTAB
  0
TABLE
  2
APPID
 70
     1
  0
APPID
  2
ACAD
 70
     0
  0
ENDTAB
  0
TABLE
  2
DIMSTYLE
 70
     2
  0
DIMSTYLE
  2
ISO-25
 70
     0
  3

  4

  5

  6

  7

 40
1.0
 41
2.5
 42
0.625
 43
3.75
 44
1.25
 45
0.0
 46
0.0
 47
0.0
 48
0.0
140
2.5
141
2.5
142
0.0
143
0.03937007874016
144
1.0
145
0.0
146
1.0
147
0.625
 71
     0
 72
     0
 73
     0
 74
     0
 75
     0
 76
     0
 77
     1
 78
     8
170
     0
171
     3
172
     1
173
     0
174
     0
175
     0
176
     0
177
     0
178
     0
  0
DIMSTYLE
  2
STANDARD
 70
     0
  3

  4

  5

  6

  7

 40
1.0
 41
0.18
 42
0.0625
 43
0.38
 44
0.18
 45
0.0
 46
0.0
 47
0.0
 48
0.0
140
0.18
141
0.09
142
0.0
143
25.399999999999999
144
1.0
145
0.0
146
1.0
147
0.09
 71
     0
 72
     0
 73
     1
 74
     1
 75
     0
 76
     0
 77
     0
 78
     0
170
     0
171
     2
172
     0
173
     0
174
     0
175
     0
176
     0
177
     0
178
     0
  0
ENDTAB
  0
ENDSEC
  0
SECTION
  2
BLOCKS
  0
BLOCK
  8
0
  2
$MODEL_SPACE
 70
     0
 10
0.0
 20
0.0
 30
0.0
  3
$MODEL_SPACE
  1

  0
ENDBLK
  5
21
  8
0
  0
BLOCK
 67
     1
  8
0
  2
$PAPER_SPACE
 70
     0
 10
0.0
 20
0.0
 30
0.0
  3
$PAPER_SPACE
  1

  0
ENDBLK
  5
1D
 67
     1
  8
0
  0
ENDSEC
  0
SECTION
  2
ENTITIES
  0
LINE
  5
79
  8
0
  6
BYBLOCK
 62
     0
 10
426.14716191741132
 20
246.68512398046701
 30
0.0
 11
449.11263691741129
 21
249.09889298046701
 31
0.0
  0
LINE
  5
7A
  8
0
  6
BYBLOCK
 62
     0
 10
428.24961991741128
 20
236.24834598046701
 30
0.0
 11
448.1400579174113
 21
238.33891498046711
 31
0.0
  0
LINE
  5
7B
  8
0
  6
BYBLOCK
 62
     0
 10
416.2418949174114
 20
244.43902798046699
 30
0.0
 11
448.64917291741131
 21
247.84516998046701
 31
0.0
  0
ARC
  5
7C
  8
0
  6
BYBLOCK
 62
     0
 10
436.6731359174114
 20
249.316679980467
 30
0.0
 40
20.0
 50
46.000525999999518
 51
91.164670000000257
  0
LINE
  5
7D
  8
0
  6
BYBLOCK
 62
     0
 10
428.06217091741138
 20
233.41418798046709
 30
0.0
 11
448.9126659174114
 21
235.605662980467
 31
0.0
  0
LINE
  5
7E
  8
0
  6
BYBLOCK
 62
     0
 10
425.40334291741129
 20
244.19532498046701
 30
0.0
 11
449.27186791741138
 21
246.704007980467
 31
0.0
  0
ARC
  5
7F
  8
0
  6
BYBLOCK
 62
     0
 10
221.4007799174114
 20
120.820221980467
 30
0.0
 40
19.898029999999999
 50
148.12816000000001
 51
211.87183999999991
  0
LINE
  5
80
  8
0
  6
BYBLOCK
 62
     0
 10
381.51385491741132
 20
238.919739980467
 30
0.0
 11
204.50274991741131
 21
110.31364398046701
 31
0.0
  0
LINE
  5
81
  8
0
  6
BYBLOCK
 62
     0
 10
152.50274991741131
 20
100.570221980467
 30
0.0
 11
152.50274991741131
 21
140.07022198046701
 31
0.0
  0
LINE
  5
82
  8
0
  6
BYBLOCK
 62
     0
 10
202.50274991741139
 20
27.570221980467071
 30
0.0
 11
154.50274991741131
 21
27.570221980467071
 31
0.0
  0
LINE
  5
83
  8
0
  6
BYBLOCK
 62
     0
 10
204.50274991741131
 20
100.570221980467
 30
0.0
 11
152.50274991741131
 21
100.570221980467
 31
0.0
  0
LINE
  5
84
  8
0
  6
BYBLOCK
 62
     0
 10
152.50274991741131
 20
101.570221980467
 30
0.0
 11
204.50274991741131
 21
101.570221980467
 31
0.0
  0
LINE
  5
85
  8
0
  6
BYBLOCK
 62
     0
 10
204.50274991741131
 20
29.570221980467061
 30
0.0
 11
152.50274991741131
 21
29.570221980467061
 31
0.0
  0
LINE
  5
86
  8
0
  6
BYBLOCK
 62
     0
 10
152.50274991741131
 20
100.570221980467
 30
0.0
 11
152.50274991741131
 21
29.570221980467061
 31
0.0
  0
LINE
  5
87
  8
0
  6
BYBLOCK
 62
     0
 10
154.50274991741131
 20
27.570221980467071
 30
0.0
 11
154.50274991741131
 21
29.570221980467061
 31
0.0
  0
LINE
  5
88
  8
0
  6
BYBLOCK
 62
     0
 10
204.50274991741131
 20
100.570221980467
 30
0.0
 11
204.50274991741131
 21
29.570221980467061
 31
0.0
  0
LINE
  5
89
  8
0
  6
BYBLOCK
 62
     0
 10
202.50274991741139
 20
29.570221980467061
 30
0.0
 11
202.50274991741139
 21
27.570221980467071
 31
0.0
  0
ARC
  5
8A
  8
0
  6
BYBLOCK
 62
     0
 10
208.50274991741131
 20
-12.429778019532931
 30
0.0
 40
100.0
 50
90.0
 51
92.292443000000191
  0
ARC
  5
8B
  8
0
  6
BYBLOCK
 62
     0
 10
209.28271591741139
 20
-107.3154190195329
 30
0.0
 40
200.0
 50
88.050107000000366
 51
91.369489999999274
  0
LINE
  5
8C
  8
0
  6
BYBLOCK
 62
     0
 10
204.50274991741131
 20
110.31364398046701
 30
0.0
 11
204.50274991741131
 21
100.570221980467
 31
0.0
  0
LINE
  5
8D
  8
0
  6
BYBLOCK
 62
     0
 10
208.50274991741131
 20
87.570221980467068
 30
0.0
 11
216.00274991741131
 21
87.570221980467068
 31
0.0
  0
ARC
  5
8E
  8
0
  6
BYBLOCK
 62
     0
 10
216.00274991741131
 20
90.070221980467068
 30
0.0
 40
2.5
 50
270.0
 51
88.050107000000366
  0
LINE
  5
8F
  8
0
  6
BYBLOCK
 62
     0
 10
204.50274991741131
 20
140.57022198046701
 30
0.0
 11
152.50274991741131
 21
140.57022198046701
 31
0.0
  0
LINE
  5
90
  8
0
  6
BYBLOCK
 62
     0
 10
152.3561999174114
 20
198.433066980467
 30
0.0
 11
205.35619991741129
 21
198.433066980467
 31
0.0
  0
LINE
  5
91
  8
0
  6
BYBLOCK
 62
     0
 10
283.13605491741129
 20
247.38212598046709
 30
0.0
 11
166.3287319174114
 21
230.67892298046701
 31
0.0
  0
LINE
  5
92
  8
0
  6
BYBLOCK
 62
     0
 10
204.50274991741131
 20
140.07022198046701
 30
0.0
 11
152.50274991741131
 21
140.07022198046701
 31
0.0
  0
ARC
  5
93
  8
0
  6
BYBLOCK
 62
     0
 10
201.8561999174114
 20
199.933066980467
 30
0.0
 40
50.0
 50
148.59649999999979
 51
180.0
  0
LINE
  5
94
  8
0
  6
BYBLOCK
 62
     0
 10
152.50274991741131
 20
187.57022198046701
 30
0.0
 11
152.50274991741131
 21
140.57022198046701
 31
0.0
  0
LINE
  5
95
  8
0
  6
BYBLOCK
 62
     0
 10
155.4527499174113
 20
140.57022198046701
 30
0.0
 11
155.4527499174113
 21
140.07022198046701
 31
0.0
  0
ARC
  5
96
  8
0
  6
BYBLOCK
 62
     0
 10
182.50274991741131
 20
187.57022198046701
 30
0.0
 40
30.0
 50
158.7710969999992
 51
180.0
  0
ARC
  5
97
  8
0
  6
BYBLOCK
 62
     0
 10
152.3561999174114
 20
198.933066980467
 30
0.0
 40
0.5
 50
180.0
 51
270.0
  0
LINE
  5
98
  8
0
  6
BYBLOCK
 62
     0
 10
151.8561999174114
 20
199.933066980467
 30
0.0
 11
151.8561999174114
 21
198.933066980467
 31
0.0
  0
ARC
  5
99
  8
0
  6
BYBLOCK
 62
     0
 10
167.71544191741131
 20
220.77553798046699
 30
0.0
 40
10.0
 50
97.970948000000632
 51
148.59649999999979
  0
LINE
  5
9A
  8
0
  6
BYBLOCK
 62
     0
 10
375.20668891741138
 20
255.35047098046701
 30
0.0
 11
204.50274991741131
 21
131.326799980467
 31
0.0
  0
ARC
  5
9B
  8
0
  6
BYBLOCK
 62
     0
 10
208.9881419174113
 20
217.624779980467
 30
0.0
 40
6.0
 50
102.0290519999995
 51
198.41657000000009
  0
LINE
  5
9C
  8
0
  6
BYBLOCK
 62
     0
 10
204.50274991741131
 20
187.57022198046701
 30
0.0
 11
204.50274991741131
 21
140.57022198046701
 31
0.0
  0
LINE
  5
9D
  8
0
  6
BYBLOCK
 62
     0
 10
204.50274991741131
 20
140.07022198046701
 30
0.0
 11
204.50274991741131
 21
131.326799980467
 31
0.0
  0
LINE
  5
9E
  8
0
  6
BYBLOCK
 62
     0
 10
201.5527499174114
 20
140.57022198046701
 30
0.0
 11
201.5527499174114
 21
140.07022198046701
 31
0.0
  0
ARC
  5
9F
  8
0
  6
BYBLOCK
 62
     0
 10
174.50274991741131
 20
187.57022198046701
 30
0.0
 40
30.0
 50
0.0
 51
21.228903000000741
  0
ARC
  5
A0
  8
0
  6
BYBLOCK
 62
     0
 10
155.8561999174114
 20
199.933066980467
 30
0.0
 40
50.0
 50
0.0000000000081422
 51
18.416570000000121
  0
ARC
  5
A1
  8
0
  6
BYBLOCK
 62
     0
 10
205.35619991741129
 20
198.933066980467
 30
0.0
 40
0.5
 50
270.0
 51
0.0
  0
LINE
  5
A2
  8
0
  6
BYBLOCK
 62
     0
 10
205.8561999174114
 20
199.933066980467
 30
0.0
 11
205.8561999174114
 21
198.933066980467
 31
0.0
  0
LINE
  5
A3
  8
0
  6
BYBLOCK
 62
     0
 10
284.5252399174114
 20
239.503663980467
 30
0.0
 11
207.73769691741131
 21
223.49303298046701
 31
0.0
  0
POLYLINE
  5
A4
  8
0
  6
BYBLOCK
 62
     0
 66
     1
 10
0.0
 20
0.0
 30
0.0
  0
VERTEX
  5
E2
  8
0
  6
BYBLOCK
 62
     0
 10
284.5252399174114
 20
239.503663980467
 30
0.0
  0
VERTEX
  5
E3
  8
0
  6
BYBLOCK
 62
     0
 10
285.8827679174114
 20
239.80473898046699
 30
0.0
  0
VERTEX
  5
E4
  8
0
  6
BYBLOCK
 62
     0
 10
287.17794391741131
 20
240.216357980467
 30
0.0
  0
VERTEX
  5
E5
  8
0
  6
BYBLOCK
 62
     0
 10
288.37141291741131
 20
240.726012980467
 30
0.0
  0
VERTEX
  5
E6
  8
0
  6
BYBLOCK
 62
     0
 10
289.4269139174113
 20
241.31821998046701
 30
0.0
  0
VERTEX
  5
E7
  8
0
  6
BYBLOCK
 62
     0
 10
290.31237491741132
 20
241.97498298046699
 30
0.0
  0
VERTEX
  5
E8
  8
0
  6
BYBLOCK
 62
     0
 10
291.00089191741131
 20
242.676348980467
 30
0.0
  0
VERTEX
  5
E9
  8
0
  6
BYBLOCK
 62
     0
 10
291.47154491741139
 20
243.40100498046701
 30
0.0
  0
VERTEX
  5
EA
  8
0
  6
BYBLOCK
 62
     0
 10
291.71003291741141
 20
244.12693498046701
 30
0.0
  0
VERTEX
  5
EB
  8
0
  6
BYBLOCK
 62
     0
 10
291.7091089174113
 20
244.832079980467
 30
0.0
  0
SEQEND
  5
EC
  8
0
  6
BYBLOCK
 62
     0
  0
POLYLINE
  5
A5
  8
0
  6
BYBLOCK
 62
     0
 66
     1
 10
0.0
 20
0.0
 30
0.0
  0
VERTEX
  5
ED
  8
0
  6
BYBLOCK
 62
     0
 10
291.7091089174113
 20
244.832079980467
 30
0.0
  0
VERTEX
  5
EE
  8
0
  6
BYBLOCK
 62
     0
 10
291.46880291741132
 20
245.49501498046709
 30
0.0
  0
VERTEX
  5
EF
  8
0
  6
BYBLOCK
 62
     0
 10
290.9964149174113
 20
246.09559798046701
 30
0.0
  0
VERTEX
  5
F0
  8
0
  6
BYBLOCK
 62
     0
 10
290.30629891741143
 20
246.61557998046709
 30
0.0
  0
VERTEX
  5
F1
  8
0
  6
BYBLOCK
 62
     0
 10
289.41942391741139
 20
247.03916098046699
 30
0.0
  0
VERTEX
  5
F2
  8
0
  6
BYBLOCK
 62
     0
 10
288.36273591741133
 20
247.35347198046699
 30
0.0
  0
VERTEX
  5
F3
  8
0
  6
BYBLOCK
 62
     0
 10
287.16834291741139
 20
247.548960980467
 30
0.0
  0
VERTEX
  5
F4
  8
0
  6
BYBLOCK
 62
     0
 10
285.87253591741131
 20
247.619689980467
 30
0.0
  0
VERTEX
  5
F5
  8
0
  6
BYBLOCK
 62
     0
 10
284.51468791741132
 20
247.56350898046699
 30
0.0
  0
VERTEX
  5
F6
  8
0
  6
BYBLOCK
 62
     0
 10
283.13605491741129
 20
247.38212598046709
 30
0.0
  0
SEQEND
  5
F7
  8
0
  6
BYBLOCK
 62
     0
  0
POINT
  5
A6
  8
0
  6
BYBLOCK
 62
     0
 10
291.7091089174113
 20
244.832079980467
 30
0.0
  0
LINE
  5
A7
  8
0
  6
BYBLOCK
 62
     0
 10
395.02714091741137
 20
265.33595798046707
 30
0.0
 11
427.8463629174114
 21
268.785396980467
 31
0.0
  0
LINE
  5
A8
  8
0
  6
BYBLOCK
 62
     0
 10
414.73089991741131
 20
245.28572398046711
 30
0.0
 11
397.32676691741131
 21
243.45647598046699
 31
0.0
  0
ARC
  5
A9
  8
0
  6
BYBLOCK
 62
     0
 10
397.22223791741141
 20
244.45099798046701
 30
0.0
 40
1.0
 50
186.00000000000011
 51
276.00000000000011
  0
ARC
  5
AA
  8
0
  6
BYBLOCK
 62
     0
 10
405.02526491741128
 20
206.559059980467
 30
0.0
 40
40.0
 50
102.8913740000005
 51
125.9999999999992
  0
ARC
  5
AB
  8
0
  6
BYBLOCK
 62
     0
 10
398.7180989174114
 20
222.98979098046701
 30
0.0
 40
40.0
 50
96.350021000000496
 51
125.9999999999992
  0
LINE
  5
AC
  8
0
  6
BYBLOCK
 62
     0
 10
394.13714691741143
 20
264.23690698046698
 30
0.0
 11
396.22771591741139
 21
244.34646898046699
 31
0.0
  0
ARC
  5
AD
  8
0
  6
BYBLOCK
 62
     0
 10
395.13166891741128
 20
264.341435980467
 30
0.0
 40
1.0
 50
96.000000000000128
 51
186.00000000000011
  0
LINE
  5
AE
  8
0
  6
BYBLOCK
 62
     0
 10
425.40334291741129
 20
244.19532498046701
 30
0.0
 11
426.2605759174113
 21
236.03928898046701
 31
0.0
  0
ARC
  5
AF
  8
0
  6
BYBLOCK
 62
     0
 10
427.95764191741131
 20
234.40870998046699
 30
0.0
 40
1.0
 50
201.0000000000006
 51
276.00000000000011
  0
LINE
  5
B0
  8
0
  6
BYBLOCK
 62
     0
 10
426.2605759174113
 20
236.03928898046701
 30
0.0
 11
427.02406191741142
 21
234.05034198046701
 31
0.0
  0
ARC
  5
B1
  8
0
  6
BYBLOCK
 62
     0
 10
421.70831591741143
 20
236.54920398046701
 30
0.0
 40
10.735289
 50
67.738212999999547
 51
124.2617870000004
  0
ARC
  5
B2
  8
0
  6
BYBLOCK
 62
     0
 10
416.18963091741142
 20
244.936288980467
 30
0.0
 40
0.5
 50
205.47122099999959
 51
276.00000000000011
  0
ARC
  5
B3
  8
0
  6
BYBLOCK
 62
     0
 10
414.83542791741132
 20
244.29120198046701
 30
0.0
 40
1.0
 50
25.471220999999609
 51
96.000000000000128
  0
LINE
  5
B4
  8
0
  6
BYBLOCK
 62
     0
 10
427.2064109174114
 20
244.3848349804671
 30
0.0
 11
427.08097691741142
 21
245.57826098046701
 31
0.0
  0
LINE
  5
B5
  8
0
  6
BYBLOCK
 62
     0
 10
426.27242991741139
 20
245.49327998046701
 30
0.0
 11
426.39786391741143
 21
244.29985298046699
 31
0.0
  0
ARC
  5
B6
  8
0
  6
BYBLOCK
 62
     0
 10
438.29920991741142
 20
169.333206980467
 30
0.0
 40
100.0
 50
91.164670000000257
 51
96.000000000000128
  0
LINE
  5
B7
  8
0
  6
BYBLOCK
 62
     0
 10
450.12910191741128
 20
238.547971980467
 30
0.0
 11
449.27186791741138
 21
246.704007980467
 31
0.0
  0
ARC
  5
B8
  8
0
  6
BYBLOCK
 62
     0
 10
448.80813791741127
 20
236.60018498046699
 30
0.0
 40
1.0
 50
276.00000000000011
 51
350.99999999999972
  0
LINE
  5
B9
  8
0
  6
BYBLOCK
 62
     0
 10
449.79582591741132
 20
236.44375098046709
 30
0.0
 11
450.12910191741128
 21
238.547971980467
 31
0.0
  0
ARC
  5
BA
  8
0
  6
BYBLOCK
 62
     0
 10
392.30226091741127
 20
268.401255980467
 30
0.0
 40
60.0
 50
341.23386899999917
 51
352.22585300000071
  0
ARC
  5
BB
  8
0
  6
BYBLOCK
 62
     0
 10
450.05947591741131
 20
248.77718698046701
 30
0.0
 40
1.0
 50
161.2338689999992
 51
186.00000000000011
  0
ARC
  5
BC
  8
0
  6
BYBLOCK
 62
     0
 10
448.59690891741138
 20
248.34243098046699
 30
0.0
 40
0.5
 50
276.00000000000011
 51
6.0000000000000782
  0
LINE
  5
BD
  8
0
  6
BYBLOCK
 62
     0
 10
447.3433659174114
 20
247.707923980467
 30
0.0
 11
447.46879991741139
 21
246.51449798046701
 31
0.0
  0
LINE
  5
BE
  8
0
  6
BYBLOCK
 62
     0
 10
448.27734591741131
 20
246.59947898046701
 30
0.0
 11
448.15191191741133
 21
247.792905980467
 31
0.0
  0
LINE
  5
BF
  8
0
  6
BYBLOCK
 62
     0
 10
449.09416991741142
 20
248.39469498046699
 30
0.0
 11
449.0649549174114
 21
248.67265798046699
 31
0.0
  0
ARC
  5
C0
  8
0
  6
BYBLOCK
 62
     0
 10
447.78756391741132
 20
260.82621898046699
 30
0.0
 40
4.0
 50
352.22585300000071
 51
46.000525999999098
  0
ENDSEC
  0
EOF
