  0
SECTION
  2
HEADER
  9
$ACADVER
  1
AC1014
  9
$ACADMAINTVER
 70
     9
  9
$DWGCODEPAGE
  3
ANSI_932
  9
$INSBASE
 10
662.653534586904
 20
682.6255490000005
 30
0.0
  9
$EXTMIN
 10
400.6969974664362
 20
618.0871756195615
 30
-0.00000001
  9
$EXTMAX
 10
691.2062684657477
 20
711.8552490054066
 30
0.00000001
  9
$LIMMIN
 10
36.0
 20
25.5
  9
$LIMMAX
 10
1224.0
 20
865.4999999999999
  9
$ORTHOMODE
 70
     1
  9
$REGENMODE
 70
     1
  9
$FILLMODE
 70
     1
  9
$QTEXTMODE
 70
     0
  9
$MIRRTEXT
 70
     0
  9
$DRAGMODE
 70
     2
  9
$LTSCALE
 40
2.0
  9
$OSMODE
 70
   513
  9
$ATTMODE
 70
     1
  9
$TEXTSIZE
 40
0.2
  9
$TRACEWID
 40
0.05
  9
$TEXTSTYLE
  7
ｽﾀｲﾙ1
  9
$CLAYER
  8
OUTLINE
  9
$CELTYPE
  6
BYLAYER
  9
$CECOLOR
 62
   256
  9
$CELTSCALE
 40
1.0
  9
$DELOBJ
 70
     1
  9
$DISPSILH
 70
     0
  9
$DIMSCALE
 40
3.0
  9
$DIMASZ
 40
2.0
  9
$DIMEXO
 40
2.0
  9
$DIMDLI
 40
7.0
  9
$DIMRND
 40
0.0
  9
$DIMDLE
 40
0.0
  9
$DIMEXE
 40
0.5
  9
$DIMTP
 40
0.0
  9
$DIMTM
 40
0.0
  9
$DIMTXT
 40
2.0
  9
$DIMCEN
 40
0.09
  9
$DIMTSZ
 40
0.0
  9
$DIMTOL
 70
     0
  9
$DIMLIM
 70
     0
  9
$DIMTIH
 70
     0
  9
$DIMTOH
 70
     0
  9
$DIMSE1
 70
     0
  9
$DIMSE2
 70
     0
  9
$DIMTAD
 70
     1
  9
$DIMZIN
 70
     8
  9
$DIMBLK
  1
OPEN
  9
$DIMASO
 70
     1
  9
$DIMSHO
 70
     1
  9
$DIMPOST
  1

  9
$DIMAPOST
  1

  9
$DIMALT
 70
     0
  9
$DIMALTD
 70
     2
  9
$DIMALTF
 40
0.03937
  9
$DIMLFAC
 40
1.0
  9
$DIMTOFL
 70
     1
  9
$DIMTVP
 40
0.0
  9
$DIMTIX
 70
     0
  9
$DIMSOXD
 70
     0
  9
$DIMSAH
 70
     0
  9
$DIMBLK1
  1

  9
$DIMBLK2
  1

  9
$DIMSTYLE
  2
G1
  9
$DIMCLRD
 70
     0
  9
$DIMCLRE
 70
     0
  9
$DIMCLRT
 70
     7
  9
$DIMTFAC
 40
1.0
  9
$DIMGAP
 40
0.8
  9
$DIMJUST
 70
     0
  9
$DIMSD1
 70
     0
  9
$DIMSD2
 70
     0
  9
$DIMTOLJ
 70
     1
  9
$DIMTZIN
 70
     0
  9
$DIMALTZ
 70
     0
  9
$DIMALTTZ
 70
     0
  9
$DIMFIT
 70
     3
  9
$DIMUPT
 70
     0
  9
$DIMUNIT
 70
     2
  9
$DIMDEC
 70
     2
  9
$DIMTDEC
 70
     2
  9
$DIMALTU
 70
     2
  9
$DIMALTTD
 70
     2
  9
$DIMTXSTY
  7
STANDARD
  9
$DIMAUNIT
 70
     0
  9
$LUNITS
 70
     2
  9
$LUPREC
 70
     4
  9
$SKETCHINC
 40
0.1
  9
$FILLETRAD
 40
5.0
  9
$AUNITS
 70
     0
  9
$AUPREC
 70
     0
  9
$MENU
  1
.
  9
$ELEVATION
 40
0.0
  9
$PELEVATION
 40
0.0
  9
$THICKNESS
 40
0.0
  9
$LIMCHECK
 70
     0
  9
$BLIPMODE
 70
     0
  9
$CHAMFERA
 40
0.0
  9
$CHAMFERB
 40
0.0
  9
$CHAMFERC
 40
0.0
  9
$CHAMFERD
 40
0.0
  9
$SKPOLY
 70
     0
  9
$TDCREATE
 40
2452110.000000000
  9
$TDUPDATE
 40
2453944.013806053
  9
$TDINDWG
 40
0.5241475000
  9
$TDUSRTIMER
 40
0.5241473148
  9
$USRTIMER
 70
     1
  9
$ANGBASE
 50
0.0
  9
$ANGDIR
 70
     0
  9
$PDMODE
 70
     3
  9
$PDSIZE
 40
0.0
  9
$PLINEWID
 40
0.0
  9
$COORDS
 70
     1
  9
$SPLFRAME
 70
     0
  9
$SPLINETYPE
 70
     6
  9
$SPLINESEGS
 70
     8
  9
$ATTDIA
 70
     0
  9
$ATTREQ
 70
     1
  9
$HANDLING
 70
 10241
  9
$HANDSEED
  5
E6
  9
$SURFTAB1
 70
     6
  9
$SURFTAB2
 70
     6
  9
$SURFTYPE
 70
     6
  9
$SURFU
 70
     6
  9
$SURFV
 70
     6
  9
$UCSNAME
  2

  9
$UCSORG
 10
0.0
 20
0.0
 30
0.0
  9
$UCSXDIR
 10
1.0
 20
0.0
 30
0.0
  9
$UCSYDIR
 10
0.0
 20
1.0
 30
0.0
  9
$PUCSNAME
  2

  9
$PUCSORG
 10
0.0
 20
0.0
 30
0.0
  9
$PUCSXDIR
 10
1.0
 20
0.0
 30
0.0
  9
$PUCSYDIR
 10
0.0
 20
1.0
 30
0.0
  9
$USERI1
 70
     0
  9
$USERI2
 70
     0
  9
$USERI3
 70
     0
  9
$USERI4
 70
     0
  9
$USERI5
 70
     0
  9
$USERR1
 40
0.0
  9
$USERR2
 40
0.0
  9
$USERR3
 40
0.0
  9
$USERR4
 40
0.0
  9
$USERR5
 40
0.0
  9
$WORLDVIEW
 70
     1
  9
$SHADEDGE
 70
     3
  9
$SHADEDIF
 70
    70
  9
$TILEMODE
 70
     1
  9
$MAXACTVP
 70
    48
  9
$PINSBASE
 10
0.0
 20
0.0
 30
0.0
  9
$PLIMCHECK
 70
     0
  9
$PEXTMIN
 10
1.000000000000000E+20
 20
1.000000000000000E+20
 30
1.000000000000000E+20
  9
$PEXTMAX
 10
-1.000000000000000E+20
 20
-1.000000000000000E+20
 30
-1.000000000000000E+20
  9
$PLIMMIN
 10
0.0
 20
0.0
  9
$PLIMMAX
 10
12.0
 20
9.0
  9
$UNITMODE
 70
     0
  9
$VISRETAIN
 70
     1
  9
$PLINEGEN
 70
     0
  9
$PSLTSCALE
 70
     1
  9
$TREEDEPTH
 70
  3020
  9
$PICKSTYLE
 70
     1
  9
$CMLSTYLE
  2
STANDARD
  9
$CMLJUST
 70
     0
  9
$CMLSCALE
 40
1.0
  9
$PROXYGRAPHICS
 70
     1
  9
$MEASUREMENT
 70
     0
  0
ENDSEC
  0
SECTION
  2
CLASSES
  0
CLASS
  1
ACDBDICTIONARYWDFLT
  2
AcDbDictionaryWithDefault
  3
AutoCAD 2000
 90
        0
280
     0
281
     0
  0
CLASS
  1
ACDBPLACEHOLDER
  2
AcDbPlaceHolder
  3
AutoCAD 2000
 90
        0
280
     0
281
     0
  0
CLASS
  1
LAYOUT
  2
AcDbLayout
  3
AutoCAD 2000
 90
        0
280
     0
281
     0
  0
CLASS
  1
TABLESTYLE
  2
AcDbTableStyle
  3
ObjectDBX Classes
 90
     2047
280
     0
281
     0
  0
CLASS
  1
SORTENTSTABLE
  2
AcDbSortentsTable
  3
AutoCAD 2000
 90
        0
280
     0
281
     0
  0
CLASS
  1
DICTIONARYVAR
  2
AcDbDictionaryVar
  3
AutoCAD 2000
 90
        0
280
     0
281
     0
  0
CLASS
  1
ACAD_PROXY_OBJECT_WRAPPER
  2
AcDbProxyObjectWrapper
  3
AutoCAD 2000
 90
        0
280
     0
281
     0
  0
CLASS
  1
LONG_TRANSACTION
  2
AcDbLongTransaction
  3
AutoCAD 2000
 90
        0
280
     0
281
     0
  0
CLASS
  1
LWPOLYLINE
  2
AcDbPolyline
  3
AutoCAD 2000
 90
        0
280
     0
281
     1
  0
CLASS
  1
HATCH
  2
AcDbHatch
  3
AutoCAD 2000
 90
        0
280
     0
281
     1
  0
CLASS
  1
XRECORD
  2
AcDbXrecord
  3
AutoCAD 2000
 90
        0
280
     0
281
     0
  0
CLASS
  1
WIPEOUT
  2
AcDbWipeout
  3
"WipeOut|Product Desc: Object Enabler for WipeOut entity^I^I^I^I^I^I|Company: Autodesk, Inc.^I^I^I^I^I^I|WEB Address: www.autodesk.com"
 90
      127
280
     0
281
     1
  0
CLASS
  1
WIPEOUTVARIABLES
  2
AcDbWipeoutVariables
  3
"WipeOut|Product Desc:     WipeOut Dbx Application|Company:          Autodesk, Inc.|WEB Address:      www.autodesk.com"
 90
        0
280
     0
281
     0
  0
CLASS
  1
LONG_TRANSACTION
  2
AcDbLongTransaction
  3
AutoCAD 2000
 90
        0
280
     0
281
     0
  0
CLASS
  1
LWPOLYLINE
  2
AcDbPolyline
  3
AutoCAD 2000
 90
        0
280
     0
281
     1
  0
CLASS
  1
HATCH
  2
AcDbHatch
  3
AutoCAD 2000
 90
        0
280
     0
281
     1
  0
CLASS
  1
XRECORD
  2
AcDbXrecord
  3
AutoCAD 2000
 90
        0
280
     0
281
     0
  0
ENDSEC
  0
SECTION
  2
TABLES
  0
TABLE
  2
VPORT
  5
23
330
0
100
AcDbSymbolTable
 70
     2
  0
VPORT
  5
C2
330
23
100
AcDbSymbolTableRecord
100
AcDbViewportTableRecord
  2
*ACTIVE
 70
     0
 10
0.0
 20
0.0
 11
1.0
 21
1.0
 12
551.9871752513759
 22
667.1445944989621
 13
0.0
 23
0.0
 14
1.0
 24
1.0
 15
0.0
 25
0.0
 16
0.0
 26
0.0
 36
1.0
 17
0.0
 27
0.0
 37
0.0
 40
154.1372261094413
 41
1.933867735470941
 42
50.0
 43
0.0
 44
0.0
 50
0.0
 51
0.0
 71
     0
 72
   100
 73
     1
 74
     1
 75
     0
 76
     0
 77
     0
 78
     0
  0
ENDTAB
  0
TABLE
  2
LTYPE
  5
1E
330
0
100
AcDbSymbolTable
 70
     1
  0
LTYPE
  5
1F
330
1E
100
AcDbSymbolTableRecord
100
AcDbLinetypeTableRecord
  2
BYBLOCK
 70
     0
  3

 72
    65
 73
     0
 40
0.0
  0
LTYPE
  5
20
330
1E
100
AcDbSymbolTableRecord
100
AcDbLinetypeTableRecord
  2
BYLAYER
 70
     0
  3

 72
    65
 73
     0
 40
0.0
  0
LTYPE
  5
C
330
1E
100
AcDbSymbolTableRecord
100
AcDbLinetypeTableRecord
  2
CONTINUOUS
 70
     0
  3
Solid line
 72
    65
 73
     0
 40
0.0
  0
ENDTAB
  0
TABLE
  2
LAYER
  5
17
102
{ACAD_XDICTIONARY
360
18
102
}
330
0
100
AcDbSymbolTable
 70
     2
  0
LAYER
  5
7
330
17
100
AcDbSymbolTableRecord
100
AcDbLayerTableRecord
  2
0
 70
     0
 62
     7
  6
CONTINUOUS
  0
LAYER
  5
35
330
17
100
AcDbSymbolTableRecord
100
AcDbLayerTableRecord
  2
OUTLINE
 70
     0
 62
     7
  6
CONTINUOUS
1001
ACAECLAYERSTANDARD
1000

1000

  0
ENDTAB
  0
TABLE
  2
STYLE
  5
1B
330
0
100
AcDbSymbolTable
 70
     2
  0
STYLE
  5
1C
330
1B
100
AcDbSymbolTableRecord
100
AcDbTextStyleTableRecord
  2
STANDARD
 70
     0
 40
0.0
 41
1.0
 50
0.0
 71
     0
 42
0.2
  3
romans.shx
  4
bigfont.shx
  0
STYLE
  5
37
330
1B
100
AcDbSymbolTableRecord
100
AcDbTextStyleTableRecord
  2
ｽﾀｲﾙ1
 70
     0
 40
0.0
 41
1.0
 50
0.0
 71
     0
 42
0.2
  3
MS PGothic.ttf
  4

1001
ACAD
1000
MS PGothic
1071
    32818
  0
ENDTAB
  0
TABLE
  2
VIEW
  5
21
330
0
100
AcDbSymbolTable
 70
     0
  0
ENDTAB
  0
TABLE
  2
UCS
  5
22
330
0
100
AcDbSymbolTable
 70
     0
  0
ENDTAB
  0
TABLE
  2
APPID
  5
25
330
0
100
AcDbSymbolTable
 70
     3
  0
APPID
  5
B
330
25
100
AcDbSymbolTableRecord
100
AcDbRegAppTableRecord
  2
ACAD
 70
     0
  0
APPID
  5
36
330
25
100
AcDbSymbolTableRecord
100
AcDbRegAppTableRecord
  2
ACAECLAYERSTANDARD
 70
     0
  0
APPID
  5
10
330
25
100
AcDbSymbolTableRecord
100
AcDbRegAppTableRecord
  2
ACAD_PSEXT
 70
     0
  0
ENDTAB
  0
TABLE
  2
DIMSTYLE
  5
26
330
0
100
AcDbSymbolTable
 70
     1
  0
DIMSTYLE
105
27
330
26
100
AcDbSymbolTableRecord
100
AcDbDimStyleTableRecord
  2
G1
 70
     0
  3

  4

  5
OPEN
  6

  7

 40
3.0
 41
2.0
 42
2.0
 43
7.0
 44
0.5
 45
0.0
 46
0.0
 47
0.0
 48
0.0
140
2.0
141
0.09
142
0.0
143
0.03937
144
1.0
145
0.0
146
1.0
147
0.8
 71
     0
 72
     0
 73
     0
 74
     0
 75
     0
 76
     0
 77
     1
 78
     8
170
     0
171
     2
172
     1
173
     0
174
     0
175
     0
176
     0
177
     0
178
     7
270
     2
271
     2
272
     2
273
     2
274
     2
340
1C
275
     0
280
     0
281
     0
282
     0
283
     1
284
     0
285
     0
286
     0
287
     3
288
     0
  0
ENDTAB
  0
TABLE
  2
BLOCK_RECORD
  5
1
330
0
100
AcDbSymbolTable
 70
     1
  0
BLOCK_RECORD
  5
2
102
{ACAD_XDICTIONARY
360
3
102
}
330
1
100
AcDbSymbolTableRecord
100
AcDbBlockTableRecord
  2
*MODEL_SPACE
  0
BLOCK_RECORD
  5
11
102
{ACAD_XDICTIONARY
360
12
102
}
330
1
100
AcDbSymbolTableRecord
100
AcDbBlockTableRecord
  2
*PAPER_SPACE
  0
BLOCK_RECORD
  5
28
330
1
100
AcDbSymbolTableRecord
100
AcDbBlockTableRecord
  2
_OPEN
  0
ENDTAB
  0
ENDSEC
  0
SECTION
  2
BLOCKS
  0
BLOCK
  5
6
330
2
100
AcDbEntity
  8
0
100
AcDbBlockBegin
  2
*MODEL_SPACE
 70
     0
 10
0.0
 20
0.0
 30
0.0
  3
*MODEL_SPACE
  1

  0
ENDBLK
  5
D
330
2
100
AcDbEntity
  8
0
100
AcDbBlockEnd
  0
BLOCK
  5
14
330
11
100
AcDbEntity
 67
     1
  8
0
100
AcDbBlockBegin
  2
*PAPER_SPACE
 70
     0
 10
0.0
 20
0.0
 30
0.0
  3
*PAPER_SPACE
  1

  0
ENDBLK
  5
15
330
11
100
AcDbEntity
 67
     1
  8
0
100
AcDbBlockEnd
  0
BLOCK
  5
29
330
28
100
AcDbEntity
  8
0
100
AcDbBlockBegin
  2
_OPEN
 70
     0
 10
0.0
 20
0.0
 30
0.0
  3
_OPEN
  1

  0
LINE
  5
2A
330
28
100
AcDbEntity
  8
0
 62
     0
100
AcDbLine
 10
-0.9659259999999999
 20
0.258819
 30
0.0
 11
0.0
 21
0.0
 31
0.0
  0
LINE
  5
2B
330
28
100
AcDbEntity
  8
0
 62
     0
100
AcDbLine
 10
0.0
 20
0.0
 30
0.0
 11
-0.9659259999999999
 21
-0.258819
 31
0.0
  0
LINE
  5
2C
330
28
100
AcDbEntity
  8
0
 62
     0
100
AcDbLine
 10
0.0
 20
0.0
 30
0.0
 11
-1.0
 21
0.0
 31
0.0
  0
ENDBLK
  5
2D
330
28
100
AcDbEntity
  8
0
100
AcDbBlockEnd
  0
ENDSEC
  0
SECTION
  2
ENTITIES
  0
ELLIPSE
  5
3A
330
2
100
AcDbEntity
  8
OUTLINE
  6
CONTINUOUS
100
AcDbEllipse
 10
425.2553879458226
 20
682.6255490000012
 30
0.0
 11
-21.34553634931242
 21
-0.0000000000008366
 31
0.0
210
0.0
220
0.0
230
1.0
 40
0.7555083542000001
 41
0.000000000000005
 42
1.570796326794908
  0
LINE
  5
3B
330
2
100
AcDbEntity
  8
OUTLINE
  6
CONTINUOUS
100
AcDbLine
 10
425.2553824820863
 20
666.4988179625352
 30
0.0
 11
533.7486146677966
 21
666.4988179625352
 31
0.0
  0
ELLIPSE
  5
3C
330
2
100
AcDbEntity
  8
OUTLINE
  6
CONTINUOUS
100
AcDbEllipse
 10
425.2553879458226
 20
682.6255490000012
 30
0.0
 11
-21.34553634931242
 21
0.000000000000758
 31
0.0
210
0.0
220
0.0
230
1.0
 40
0.7555083542000001
 41
4.712388980384687
 42
6.283185307179576
  0
LINE
  5
3D
330
2
100
AcDbEntity
  8
OUTLINE
  6
CONTINUOUS
100
AcDbLine
 10
533.7486146677966
 20
698.7522800374661
 30
0.0
 11
425.2553878889759
 21
698.7522800374661
 31
0.0
  0
ARC
  5
3E
330
2
100
AcDbEntity
  8
OUTLINE
  6
CONTINUOUS
100
AcDbCircle
 10
661.9060067900996
 20
682.6255489995973
 30
0.0
 40
29.22970000540606
100
AcDbArc
 50
229.5974108547978
 51
130.4025891452021
  0
SPLINE
  5
3F
330
2
100
AcDbEntity
  8
OUTLINE
  6
CONTINUOUS
100
AcDbSpline
210
0.0
220
0.0
230
1.0
 70
    11
 71
     3
 72
    25
 73
    21
 74
     0
 42
0.0000000001
 43
0.0000000001
 40
0.0
 40
0.0
 40
0.0
 40
0.0
 40
0.1228393956552392
 40
0.1666666666666664
 40
0.1666666666666664
 40
0.1666666666666664
 40
0.3333333333333187
 40
0.3333333333333187
 40
0.3333333333333187
 40
0.3858365645507327
 40
0.4999999999999585
 40
0.6141634354492044
 40
0.6666666666666385
 40
0.6666666666666385
 40
0.6666666666666385
 40
0.8333333333332905
 40
0.8333333333332905
 40
0.8333333333332905
 40
0.8771606043447032
 40
1.0
 40
1.0
 40
1.0
 40
1.0
 10
637.6842859613252
 20
682.6737337854247
 30
0.0
 10
637.6926569636383
 20
681.7332135000556
 30
0.0
 10
638.5543427753758
 20
680.4571307985502
 30
0.0
 10
638.2477283323177
 20
679.181304578135
 30
0.0
 10
638.1434798373661
 20
678.8457949940757
 30
0.0
 10
638.1960397884418
 20
678.7397233405259
 30
0.0
 10
638.2485997395177
 20
678.6336516869758
 30
0.0
 10
638.3011596905935
 20
678.5275800334257
 30
0.0
 10
638.4480812201362
 20
678.9629344539697
 30
0.0
 10
638.8791477877885
 20
680.3448037702324
 30
0.0
 10
637.2962804141798
 20
682.6737337854247
 30
0.0
 10
638.8791477877876
 20
685.0026638006152
 30
0.0
 10
638.4480812201362
 20
686.3845331168777
 30
0.0
 10
638.3011596880322
 20
686.8198875450125
 30
0.0
 10
638.2485997395177
 20
686.7138158838725
 30
0.0
 10
638.1960397884418
 20
686.6077442303226
 30
0.0
 10
638.1434798373661
 20
686.5016725767722
 30
0.0
 10
638.2477283323177
 20
686.1661629927124
 30
0.0
 10
638.5543427753755
 20
684.8903367722963
 30
0.0
 10
637.6926569636383
 20
683.6142540707915
 30
0.0
 10
637.6842859613252
 20
682.6737337854247
 30
0.0
  0
SPLINE
  5
40
330
2
100
AcDbEntity
  8
OUTLINE
  6
CONTINUOUS
100
AcDbSpline
210
0.0
220
0.0
230
1.0
 70
    15
 71
     3
 72
    33
 73
    29
 74
     0
 42
0.0000000001
 43
0.0000000001
 40
0.0
 40
0.0
 40
0.0
 40
0.0
 40
0.0506653747815206
 40
0.0674742208580877
 40
0.0674742208580877
 40
0.0887444607711689
 40
0.0887444607711689
 40
0.0887444607711689
 40
0.1562186816292542
 40
0.1562186816292542
 40
0.1562186816292542
 40
0.2236929024873396
 40
0.2236929024873396
 40
0.2676173471574158
 40
0.4036130435950586
 40
0.5396087400327254
 40
0.5835331847028146
 40
0.5835331847028146
 40
0.6510074055608967
 40
0.6510074055608967
 40
0.6510074055608967
 40
0.7184816264189821
 40
0.7184816264189821
 40
0.7184816264189821
 40
0.7859558472770675
 40
0.7859558472770675
 40
0.8392774739806629
 40
1.0
 40
1.0
 40
1.0
 40
1.0
 10
638.5833726617843
 20
682.6737337854247
 30
0.0
 41
1.0
 10
638.591743664098
 20
681.7332135000556
 30
0.0
 41
1.0
 10
639.4375374350347
 20
680.4806655464622
 30
0.0
 41
1.0
 10
639.1577274022482
 20
679.2283647006548
 30
0.0
 41
1.0
 10
638.9456960960301
 20
678.5216060354155
 30
0.0
 41
1.0
 10
638.827259515027
 20
678.1268243336085
 30
0.0
 41
1.0
 10
638.7088229340228
 20
677.7320426318001
 30
0.0
 41
1.0
 10
638.7681073092753
 20
677.6513808631902
 30
0.0
 41
0.997360588447966
 10
638.8343275070907
 20
677.5763086082247
 30
0.0
 41
0.997360588447966
 10
638.906959180405
 20
677.5074203066359
 30
0.0
 41
1.0
 10
639.0463758741092
 20
677.977076116832
 30
0.0
 41
1.0
 10
639.1857925678144
 20
678.4467319270279
 30
0.0
 41
1.0
 10
639.4159668985967
 20
679.2221248081609
 30
0.0
 41
1.0
 10
639.6901362850773
 20
680.4744258428528
 30
0.0
 41
1.0
 10
638.1953671146393
 20
682.6737337854247
 30
0.0
 41
1.0
 10
639.6901362850767
 20
684.8730417279957
 30
0.0
 41
1.0
 10
639.4159668985967
 20
686.1253427626869
 30
0.0
 41
1.0
 10
639.1857925678144
 20
686.9007356438204
 30
0.0
 41
1.0
 10
639.0463758741092
 20
687.3703914540166
 30
0.0
 41
1.0
 10
638.906959180405
 20
687.840047264212
 30
0.0
 41
1.0
 10
638.8343275070907
 20
687.771158962624
 30
0.0
 41
0.997360588447966
 10
638.7681073092753
 20
687.6960867076576
 30
0.0
 41
0.997360588447966
 10
638.7088229340228
 20
687.6154249390469
 30
0.0
 41
1.0
 10
638.827259515027
 20
687.22064323724
 30
0.0
 41
1.0
 10
638.9456960960301
 20
686.8258615354322
 30
0.0
 41
1.0
 10
639.1577274022482
 20
686.1191028701938
 30
0.0
 41
1.0
 10
639.4375374350347
 20
684.8668020243861
 30
0.0
 41
1.0
 10
638.591743664098
 20
683.6142540707915
 30
0.0
 41
1.0
 10
638.5833726617843
 20
682.6737337854247
 30
0.0
 41
1.0
  0
SPLINE
  5
41
330
2
100
AcDbEntity
  8
OUTLINE
  6
CONTINUOUS
100
AcDbSpline
210
0.0
220
0.0
230
1.0
 70
    11
 71
     1
 72
    15
 73
    13
 74
     0
 42
0.0000000001
 43
0.0000000001
 40
0.0
 40
0.0
 40
0.0833333333333333
 40
0.1666666666666667
 40
0.25
 40
0.3333333333333333
 40
0.4166666666666667
 40
0.5
 40
0.5833333333333334
 40
0.6666666666666666
 40
0.75
 40
0.8333333333333332
 40
0.9166666666666666
 40
1.0
 40
1.0
 10
643.1617065902083
 20
678.5868022670284
 30
0.0
 10
643.1617065902083
 20
679.1842618079781
 30
0.0
 10
642.3146449828455
 20
679.1842618079781
 30
0.0
 10
642.3146449828455
 20
680.2431330418706
 30
0.0
 10
643.1617065902083
 20
680.2431330418706
 30
0.0
 10
643.1617065902083
 20
680.8368488774017
 30
0.0
 10
640.8649547991577
 20
680.8368488774017
 30
0.0
 10
640.8649547991577
 20
680.2431330418706
 30
0.0
 10
641.8407078074087
 20
680.2431330418706
 30
0.0
 10
641.8407078074087
 20
679.1842618079781
 30
0.0
 10
640.8649547991577
 20
679.1842618079781
 30
0.0
 10
640.8649547991577
 20
678.5868022670284
 30
0.0
 10
643.1617065902083
 20
678.5868022670284
 30
0.0
  0
SPLINE
  5
42
330
2
100
AcDbEntity
  8
OUTLINE
  6
CONTINUOUS
100
AcDbSpline
210
0.0
220
0.0
230
1.0
 70
    15
 71
     3
 72
    29
 73
    25
 74
     0
 42
0.0000000001
 43
0.0000000001
 40
0.0
 40
0.0
 40
0.0
 40
0.0
 40
0.0069379007885442
 40
0.0870663221933043
 40
0.1666666666667106
 40
0.1666666666667106
 40
0.1666666666667106
 40
0.2462670111400953
 40
0.3263954325448291
 40
0.3333333333333761
 40
0.3333333333333761
 40
0.3333333333333761
 40
0.5000000000000463
 40
0.5000000000000463
 40
0.5000000000000463
 40
0.5116154467721824
 40
0.5891410567194461
 40
0.6666666666667052
 40
0.744192276613946
 40
0.8217178865612005
 40
0.83333333333333
 40
0.83333333333333
 40
0.83333333333333
 40
1.0
 40
1.0
 40
1.0
 40
1.0
 10
639.4954954302757
 20
676.7661666335797
 30
0.0
 41
1.0
 10
639.4868688134742
 20
676.8481727857992
 30
0.0
 41
1.0
 10
639.4285310297755
 20
677.8772675047307
 30
0.0
 41
1.0
 10
640.7652312148297
 20
679.8459352628342
 30
0.0
 41
0.9999999999999996
 10
639.4908303645578
 20
681.7332135000556
 30
0.0
 41
1.0
 10
639.4824593622447
 20
682.6737337854247
 30
0.0
 41
1.0
 10
639.4908303645578
 20
683.6142540707915
 30
0.0
 41
1.0
 10
640.7652312148297
 20
685.5015323080142
 30
0.0
 41
0.9999999999999996
 10
639.4285310297755
 20
687.4702000661173
 30
0.0
 41
1.0
 10
639.4868688134742
 20
688.4992947850486
 30
0.0
 41
1.0
 10
639.495495430277
 20
688.5813009372813
 30
0.0
 41
1.0
 10
639.5820614521962
 20
688.6568916462987
 30
0.0
 41
0.9965248981312175
 10
639.6758843138591
 20
688.723261082594
 30
0.0
 41
0.9965248981312175
 10
639.7759858832628
 20
688.7797173244844
 30
0.0
 41
1.0
 10
639.7517685207467
 20
688.6378082960446
 30
0.0
 41
1.0
 10
639.6434469996655
 20
687.5487761489408
 30
0.0
 41
1.0
 10
641.0248620142565
 20
685.5140131869392
 30
0.0
 41
1.0
 10
639.0944538150993
 20
682.6737337854247
 30
0.0
 41
1.0
 10
641.0248620142565
 20
679.8334543839091
 30
0.0
 41
1.0
 10
639.6434469996655
 20
677.7986914219077
 30
0.0
 41
1.0
 10
639.7517685207467
 20
676.7096592748035
 30
0.0
 41
1.0
 10
639.7759858832628
 20
676.5677502463631
 30
0.0
 41
1.0
 10
639.6758843138599
 20
676.6242064882532
 30
0.0
 41
0.9965248981312175
 10
639.5820614521962
 20
676.690575924549
 30
0.0
 41
0.9965248981312175
 10
639.4954954302757
 20
676.7661666335797
 30
0.0
 41
1.0
  0
LWPOLYLINE
  5
43
330
2
100
AcDbEntity
  8
OUTLINE
  6
CONTINUOUS
100
AcDbPolyline
 90
       72
 70
     0
 43
0.0
 10
589.9040991487067
 20
665.7661781633787
 10
589.5291653337443
 20
665.8575385487917
 10
589.1784175042302
 20
665.9431994515297
 10
588.5260616783047
 20
666.1034696243532
 10
587.2921871807728
 20
666.4127934088655
 10
586.670177451193
 20
666.5729330563626
 10
586.0250833918644
 20
666.7419003212102
 10
584.7008548794279
 20
667.0968347109798
 10
583.8403975882727
 20
667.3328663189145
 10
582.9833862058031
 20
667.5725067707526
 10
582.124156211695
 20
667.8177695170857
 10
581.2782261366773
 20
668.0644256383803
 10
580.4271115083288
 20
668.3178118557679
 10
579.583808601972
 20
668.5743605634134
 10
578.7368714113909
 20
668.8393267634637
 10
578.174340279128
 20
669.0205445140867
 10
577.61022635982
 20
669.2075561431875
 10
577.0450483334839
 20
669.4013065683507
 10
576.4544477388798
 20
669.611864277842
 10
575.8637117547245
 20
669.8321687412684
 10
575.2751874630344
 20
670.0628832792991
 10
574.6876332567068
 20
670.3062388006081
 10
574.2166434570199
 20
670.5121008124145
 10
573.7471478187188
 20
670.7281786071957
 10
573.2804262107841
 20
670.9550967696153
 10
572.8161711424168
 20
671.1943543873726
 10
572.4161780996772
 20
671.4126689641833
 10
572.0189500607697
 20
671.6419907570013
 10
571.6261390407644
 20
671.8824811270756
 10
571.2372045417891
 20
672.1356890005576
 10
570.8761445918383
 20
672.385851455786
 10
570.5198018933515
 20
672.6487957866884
 10
570.2867420573247
 20
672.8303612066516
 10
570.0563232694301
 20
673.0180702543789
 10
569.8288530990867
 20
673.2120803545845
 10
569.6181530437788
 20
673.4001879518919
 10
569.4105393605572
 20
673.5941389141643
 10
569.2063008707091
 20
673.7940110936001
 10
568.9569836013279
 20
674.0514266654503
 10
568.7138737897147
 20
674.3182118168315
 10
568.6682219306667
 20
674.3702005663881
 10
568.6228608220663
 20
674.4224843178012
 10
568.4385315194813
 20
674.6416732932252
 10
568.2594423364918
 20
674.8657297785107
 10
568.0857561756575
 20
675.0945534299121
 10
567.8921323296093
 20
675.3645365064135
 10
567.7061697298483
 20
675.6403670218951
 10
567.6161175678379
 20
675.7803801986182
 10
567.5280457808971
 20
675.9217419381483
 10
567.3589951231109
 20
676.2064584227346
 10
567.1979064908687
 20
676.4959958568907
 10
567.1203638425907
 20
676.6424650176118
 10
567.0448271201721
 20
676.7900149216966
 10
566.9240720486195
 20
677.0367999798341
 10
566.808814580081
 20
677.2862823554942
 10
566.699038623707
 20
677.5382904288123
 10
566.5473195770427
 20
677.9136610911158
 10
566.4073612420907
 20
678.2937776278154
 10
566.2771174955024
 20
678.6845598558691
 10
566.1589819932927
 20
679.0795071742591
 10
566.0851499586701
 20
679.3520269323339
 10
566.0170875350209
 20
679.6263696210103
 10
565.9548796392608
 20
679.9025552640427
 10
565.8825290629984
 20
680.2666434318783
 10
565.8209501843344
 20
680.6331013530924
 10
565.7852281377767
 20
680.8856579489448
 10
565.7549499954447
 20
681.1398150829382
 10
565.7302015567875
 20
681.3964641137681
 10
565.7076186700013
 20
681.718074943758
 10
565.6957367574387
 20
682.0360468615545
 10
565.6943652579853
 20
682.3199137520519
 10
565.6956373933923
 20
682.6304388135334
  0
SPLINE
  5
44
330
2
100
AcDbEntity
  8
OUTLINE
  6
CONTINUOUS
100
AcDbSpline
210
0.0
220
0.0
230
1.0
 70
    12
 71
     3
 72
    65
 73
    61
 74
     0
 42
0.0000000001
 43
0.0000000001
 40
0.0
 40
0.0
 40
0.0
 40
0.0
 40
0.0139013296819979
 40
0.0278294760766892
 40
0.0416871835722666
 40
0.0553865490058573
 40
0.0678646809541691
 40
0.0839344704885397
 40
0.1040311425726809
 40
0.1214080073965773
 40
0.1341730548902158
 40
0.1464065549307594
 40
0.1614989399594568
 40
0.1780029822537849
 40
0.1926533508655878
 40
0.209907618782378
 40
0.2263809582355064
 40
0.242181083349422
 40
0.2597912625212197
 40
0.2748902366825411
 40
0.2952273052691783
 40
0.3086816316161771
 40
0.3232565723342974
 40
0.3354017091841758
 40
0.3481992680934728
 40
0.3620657819305992
 40
0.3860189171271789
 40
0.4019743532417729
 40
0.4232131554993626
 40
0.4420345684469122
 40
0.4586629895045343
 40
0.4754693580889537
 40
0.4905972298944537
 40
0.5060105889559231
 40
0.5228706982797588
 40
0.5442949731106641
 40
0.5623656334698289
 40
0.5883540652625659
 40
0.6034006472068649
 40
0.6302510424500399
 40
0.6462463759256259
 40
0.6602752490341924
 40
0.6843980808595573
 40
0.701412451444539
 40
0.7248552033522369
 40
0.7385478692768654
 40
0.752584730909473
 40
0.7779374757254792
 40
0.7979599099256224
 40
0.8149741403911145
 40
0.8273868179615671
 40
0.8501167530861664
 40
0.8702066059853274
 40
0.8812652908984642
 40
0.8984714284360057
 40
0.9104109401460412
 40
0.9262521131673166
 40
0.9403192575439597
 40
0.9607204724939062
 40
1.0
 40
1.0
 40
1.0
 40
1.0
 10
670.0702935978097
 20
682.6255489995651
 30
0.0
 41
1.0
 10
670.0697980193295
 20
682.4307388584692
 30
0.0
 41
1.0
 10
670.0685703341019
 20
682.1021226951747
 30
0.0
 41
1.0
 10
670.0566314368319
 20
681.5608354120439
 30
0.0
 41
0.9999999999999998
 10
670.0366294734508
 20
681.0358597005564
 30
0.0
 41
1.0
 10
670.008519429355
 20
680.5266183126032
 30
0.0
 41
1.0
 10
669.9697961150317
 20
679.9912761142086
 30
0.0
 41
1.0
 10
669.9133411057482
 20
679.3763034010312
 30
0.0
 41
1.0
 10
669.833935134096
 20
678.7025463680142
 30
0.0
 41
1.0
 10
669.7418546391345
 20
678.0742186704027
 30
0.0
 41
1.0
 10
669.6518654842683
 20
677.5474037677557
 30
0.0
 41
1.0
 10
669.556862925142
 20
677.0517765598488
 30
0.0
 41
1.0
 10
669.4410099378106
 20
676.5136154670763
 30
0.0
 41
1.0
 10
669.3039047404091
 20
675.9508386756497
 30
0.0
 41
1.0
 10
669.1448574388287
 20
675.3676256269662
 30
0.0
 41
0.9999999999999996
 10
668.9699035197032
 20
674.7913224477152
 30
0.0
 41
1.0
 10
668.7734196039132
 20
674.2091286135437
 30
0.0
 41
1.0
 10
668.5588296893447
 20
673.6308902468453
 30
0.0
 41
1.0
 10
668.3334456886314
 20
673.0773257939781
 30
0.0
 41
1.0
 10
668.0693462750191
 20
672.4820227430435
 30
0.0
 41
1.0
 10
667.8085470398436
 20
671.9438103904784
 30
0.0
 41
1.0
 10
667.5345909372339
 20
671.4218853875441
 30
0.0
 41
1.0
 10
667.296240816192
 20
670.995790218587
 30
0.0
 41
1.0
 10
667.051916917785
 20
670.5838636508565
 30
0.0
 41
1.0
 10
666.8031143434988
 20
670.1860490977318
 30
0.0
 41
0.9999999999999998
 10
666.4665703211357
 20
669.6767808353001
 30
0.0
 41
1.0
 10
666.0913457340239
 20
669.1503702211071
 30
0.0
 41
1.0
 10
665.6446533756496
 20
668.5699225184047
 30
0.0
 41
1.0
 10
665.2189065749649
 20
668.0537498666804
 30
0.0
 41
1.0
 10
664.7709546720269
 20
667.548598388611
 30
0.0
 41
1.0
 10
664.3446988204532
 20
667.0970782365944
 30
0.0
 41
1.0
 10
663.9373421517206
 20
666.6899113174198
 30
0.0
 41
1.0
 10
663.5301297758624
 20
666.3045629478387
 30
0.0
 41
1.0
 10
663.1131492357898
 20
665.9299373830995
 30
0.0
 41
1.0
 10
662.629996600538
 20
665.518953016503
 30
0.0
 41
1.0
 10
662.109946273545
 20
665.1043473714779
 30
0.0
 41
1.0
 10
661.4905760985857
 20
664.6428578874682
 30
0.0
 41
1.0
 10
660.9169095818315
 20
664.246532888827
 30
0.0
 41
1.0
 10
660.2436136731552
 20
663.8127070479836
 30
0.0
 41
1.0
 10
659.6572256796831
 20
663.4611041863927
 30
0.0
 41
1.0
 10
659.0697689689336
 20
663.1339114947118
 30
0.0
 41
0.9999999999999998
 10
658.5031089431545
 20
662.8344543397523
 30
0.0
 41
1.0
 10
657.9164640495926
 20
662.5448298445926
 30
0.0
 41
1.0
 10
657.2184927763182
 20
662.2252078319619
 30
0.0
 41
1.0
 10
656.6241216712251
 20
661.9731551905206
 30
0.0
 41
1.0
 10
656.0547398379867
 20
661.7488669565333
 30
0.0
 41
1.0
 10
655.4581660543752
 20
661.527021255411
 30
0.0
 41
1.0
 10
654.7809910645272
 20
661.2960402804377
 30
0.0
 41
1.0
 10
654.0585646545252
 20
661.0749404229709
 30
0.0
 41
1.0
 10
653.4786340554037
 20
660.9139059737699
 30
0.0
 41
1.0
 10
652.8608832419681
 20
660.7562249493049
 30
0.0
 41
1.0
 10
652.1990332635441
 20
660.6048545964431
 30
0.0
 41
1.0
 10
651.5447872499171
 20
660.4761969359451
 30
0.0
 41
1.0
 10
650.9524456181492
 20
660.3732399004775
 30
0.0
 41
1.0
 10
650.4562274033942
 20
660.2970467782755
 30
0.0
 41
1.0
 10
649.8971949694887
 20
660.2225026123565
 30
0.0
 41
1.0
 10
649.3743784829103
 20
660.1624878837277
 30
0.0
 41
1.0
 10
648.741664119294
 20
660.1018899100977
 30
0.0
 41
1.0
 10
647.8160317158335
 20
660.0323042201876
 30
0.0
 41
1.0
 10
647.0337326314607
 20
659.9982203969507
 30
0.0
 41
0.9999999999999987
 10
646.6313290044345
 20
659.9926940442583
 30
0.0
 41
1.0
  0
ARC
  5
45
330
2
100
AcDbEntity
  8
OUTLINE
  6
CONTINUOUS
100
AcDbCircle
 10
661.9765684603416
 20
682.6255490000006
 30
0.0
 40
29.22970000540606
100
AcDbArc
 50
229.6563090083991
 51
130.3436909923999
  0
ARC
  5
46
330
2
100
AcDbEntity
  8
OUTLINE
  6
CONTINUOUS
100
AcDbCircle
 10
661.9060067900996
 20
682.6255489995973
 30
0.0
 40
29.22970000540606
100
AcDbArc
 50
271.5279393558013
 51
130.4025891452021
  0
LWPOLYLINE
  5
47
330
2
100
AcDbEntity
  8
OUTLINE
  6
CONTINUOUS
100
AcDbPolyline
 90
       37
 70
     0
 43
0.0
 10
627.9350017247292
 20
661.1435422746331
 10
627.8821107510939
 20
661.146346397077
 10
626.4547176324184
 20
661.2241505112701
 10
625.0295476291738
 20
661.3061917764844
 10
623.6069769638857
 20
661.392814774194
 10
622.5981013361165
 20
661.4573944750555
 10
621.5906001952776
 20
661.5250092783038
 10
620.584398898392
 20
661.5962055007403
 10
619.3817638999621
 20
661.6865935740916
 10
618.1808377992115
 20
661.7820814197252
 10
617.5810523914537
 20
661.8314851768599
 10
616.9816982612672
 20
661.8818656337357
 10
615.8722051331522
 20
661.9776149021462
 10
614.7640000647842
 20
662.076629411878
 10
613.6571860612233
 20
662.1791315493418
 10
612.6679795989192
 20
662.2739965568362
 10
611.6793310312
 20
662.3720537604298
 10
610.6912679408224
 20
662.4734640000747
 10
609.2319761501703
 20
662.629852203856
 10
607.774150656332
 20
662.7945163125851
 10
606.7493529284056
 20
662.9156673490061
 10
605.7258471213693
 20
663.0414043665096
 10
604.7036832667936
 20
663.1719700828797
 10
603.9379611157774
 20
663.2732114131595
 10
603.1730195106383
 20
663.3774132060733
 10
601.8228104289132
 20
663.569184481395
 10
600.4751406328255
 20
663.7711948347535
 10
599.3753408493307
 20
663.94437203636
 10
598.2772424803092
 20
664.1249774187198
 10
597.180882325348
 20
664.3131430460535
 10
596.0998296651005
 20
664.5065060180362
 10
595.0204258848867
 20
664.7073616349621
 10
593.942730151264
 20
664.9156729448446
 10
592.5934789469664
 20
665.1874678757043
 10
591.2471769516669
 20
665.4709916010573
 10
590.575225848926
 20
665.6171605308299
 10
589.9041222147707
 20
665.7662728240646
  0
ARC
  5
48
330
2
100
AcDbEntity
  8
OUTLINE
  6
CONTINUOUS
100
AcDbCircle
 10
533.7486146677966
 20
61.74640405758204
 30
0.0
 40
604.7524139049532
100
AcDbArc
 50
78.33096818590115
 51
90.0
  0
SPLINE
  5
49
330
2
100
AcDbEntity
  8
OUTLINE
  6
CONTINUOUS
100
AcDbSpline
210
0.0
220
0.0
230
1.0
 70
    11
 71
     1
 72
    15
 73
    13
 74
     0
 42
0.0000000001
 43
0.0000000001
 40
0.0
 40
0.0
 40
0.0833333333333333
 40
0.1666666666666667
 40
0.25
 40
0.3333333333333333
 40
0.4166666666666667
 40
0.5
 40
0.5833333333333334
 40
0.6666666666666666
 40
0.75
 40
0.8333333333333332
 40
0.9166666666666666
 40
1.0
 40
1.0
 10
640.8649547991577
 20
676.2163397701059
 30
0.0
 10
640.8649547991577
 20
677.9378468632351
 30
0.0
 10
643.1617065902083
 20
677.9378468632351
 30
0.0
 10
643.1617065902083
 20
676.3696723856887
 30
0.0
 10
642.7226177364955
 20
676.3696723856887
 30
0.0
 10
642.7226177364955
 20
677.3441310277038
 30
0.0
 10
642.2937359898118
 20
677.3441310277038
 30
0.0
 10
642.2937359898118
 20
676.5264898334435
 30
0.0
 10
641.8685864647872
 20
676.5264898334435
 30
0.0
 10
641.8685864647872
 20
677.3441310277038
 30
0.0
 10
641.3040436528712
 20
677.3441310277038
 30
0.0
 10
641.3040436528712
 20
676.2163397701059
 30
0.0
 10
640.8649547991577
 20
676.2163397701059
 30
0.0
  0
SPLINE
  5
4A
330
2
100
AcDbEntity
  8
OUTLINE
  6
CONTINUOUS
100
AcDbSpline
210
0.0
220
0.0
230
1.0
 70
    12
 71
     3
 72
    38
 73
    34
 74
     0
 42
0.0000000001
 43
0.0000000001
 40
0.0
 40
0.0
 40
0.0
 40
0.0
 40
0.0681306463903807
 40
0.1150978388159079
 40
0.1425950644133321
 40
0.1763896918021069
 40
0.2102728460950624
 40
0.2362837702825827
 40
0.2747124447950325
 40
0.3064164251765189
 40
0.3523338389152222
 40
0.3784508033187108
 40
0.4075922293354842
 40
0.4455774665340976
 40
0.4972971447989169
 40
0.5364217970228875
 40
0.5629985236752604
 40
0.5924293489691707
 40
0.6275164808475458
 40
0.6588903138439922
 40
0.6863763670236645
 40
0.7080574666913444
 40
0.7458666255651071
 40
0.7704298196145394
 40
0.7945719727568191
 40
0.8155162446506619
 40
0.848071866045538
 40
0.8728330080284838
 40
0.9053384842467281
 40
0.9280078264662472
 40
0.9578569677636391
 40
0.99829485080555
 40
1.0
 40
1.0
 40
1.0
 40
1.0
 10
660.9690877281927
 20
654.8775392995635
 30
0.0
 41
1.0
 10
660.8716523869695
 20
654.9424452268523
 30
0.0
 41
0.9999999999999994
 10
660.6921502348264
 20
655.0587843480625
 30
0.0
 41
1.0
 10
660.436540691538
 20
655.2165151291668
 30
0.0
 41
1.0
 10
660.2255285896493
 20
655.3427477035697
 30
0.0
 41
1.0
 10
660.0274667367994
 20
655.4583338786196
 30
0.0
 41
1.0
 10
659.8185081768206
 20
655.576988102235
 30
0.0
 41
1.0
 10
659.5859180923253
 20
655.7058894062256
 30
0.0
 41
1.0
 10
659.3442401220741
 20
655.8364195883394
 30
0.0
 41
1.0
 10
659.033417748014
 20
655.9995693205364
 30
0.0
 41
1.0
 10
658.7363114524809
 20
656.1507059758237
 30
0.0
 41
1.0
 10
658.4288119738407
 20
656.3024914454076
 30
0.0
 41
1.0
 10
658.1327472582202
 20
656.4453124757013
 30
0.0
 41
1.0
 10
657.7355863921748
 20
656.6315807107915
 30
0.0
 41
1.0
 10
657.2761923305461
 20
656.8389529856431
 30
0.0
 41
1.0
 10
656.8306328896368
 20
657.0321234133216
 30
0.0
 41
1.0
 10
656.4539806433398
 20
657.1906109847358
 30
0.0
 41
1.0
 10
656.0805393193827
 20
657.3437514457732
 30
0.0
 41
1.0
 10
655.6720298675377
 20
657.5062739292116
 30
0.0
 41
1.0
 10
655.2564267432306
 20
657.6664059839194
 30
0.0
 41
1.0
 10
654.8885842234413
 20
657.8040326461692
 30
0.0
 41
1.0
 10
654.4811313481232
 20
657.9526053952712
 30
0.0
 41
1.0
 10
654.0755635241676
 20
658.0958333980014
 30
0.0
 41
1.0
 10
653.6458162256981
 20
658.24224530872
 30
0.0
 41
1.0
 10
653.2922546430844
 20
658.3592348382002
 30
0.0
 41
1.0
 10
652.8904851277275
 20
658.4884742431077
 30
0.0
 41
1.0
 10
652.4765407274407
 20
658.6170724963663
 30
0.0
 41
1.0
 10
651.9908534735044
 20
658.7620699207
 30
0.0
 41
1.0
 10
651.5494127363254
 20
658.8884307688612
 30
0.0
 41
1.0
 10
651.0709043859892
 20
659.0196368760589
 30
0.0
 41
1.0
 10
650.5386398655555
 20
659.1597112536027
 30
0.0
 41
1.0
 10
650.1171709528392
 20
659.2645289505052
 30
0.0
 41
1.0
 10
649.8673152839598
 20
659.3245474355831
 30
0.0
 41
1.0
 10
649.8572007457327
 20
659.3269736475426
 30
0.0
 41
1.0
  0
SPLINE
  5
4B
330
2
100
AcDbEntity
  8
OUTLINE
  6
CONTINUOUS
100
AcDbSpline
210
0.0
220
0.0
230
1.0
 70
    12
 71
     3
 72
    75
 73
    71
 74
     0
 42
0.0000000001
 43
0.0000000001
 40
0.0
 40
0.0
 40
0.0
 40
0.0
 40
0.0080561503733789
 40
0.0149059105131517
 40
0.0234704189168227
 40
0.0310227078521005
 40
0.0359770458792238
 40
0.0432186863467282
 40
0.052215000484614
 40
0.0572703339428387
 40
0.0652759425081209
 40
0.0713480855028007
 40
0.0765726053928983
 40
0.0804802470578203
 40
0.0891856111707404
 40
0.097478361033819
 40
0.097478361033819
 40
0.1065479625296539
 40
0.1138878439836049
 40
0.1292233944118627
 40
0.1449131004514001
 40
0.1566548759591173
 40
0.1665688102988588
 40
0.1748020901199375
 40
0.1851087658483624
 40
0.2031146171518811
 40
0.2100762024098291
 40
0.2216242920418284
 40
0.2351983024203399
 40
0.2469935962071591
 40
0.2571123743456266
 40
0.2687398627769984
 40
0.2826212035311597
 40
0.3001452083791638
 40
0.3136954269798316
 40
0.3264353782647034
 40
0.3414707838202838
 40
0.3497073012650148
 40
0.359325031175425
 40
0.3678352509702965
 40
0.3832579494458162
 40
0.3984263868151343
 40
0.4040940667220931
 40
0.4188954139932001
 40
0.4287778187304335
 40
0.447269097701304
 40
0.4580555823704461
 40
0.473901390960805
 40
0.4899254006121789
 40
0.5020717308148424
 40
0.5214263766084363
 40
0.5295338717659087
 40
0.54112660314921
 40
0.5583414784209067
 40
0.5739411891775329
 40
0.5899149233323277
 40
0.6042604726431444
 40
0.6237116343598529
 40
0.6472780661532647
 40
0.6722017252187064
 40
0.6931153584092943
 40
0.7132966081120108
 40
0.7338404812904408
 40
0.7635407295055457
 40
0.7903440233843653
 40
0.8143784112258501
 40
0.8524549889277125
 40
0.8876285049394947
 40
0.9282347571358547
 40
1.0
 40
1.0
 40
1.0
 40
1.0
 10
661.5797811376705
 20
626.8356755587979
 30
0.0
 41
1.0
 10
661.5205101582177
 20
626.8251951915617
 30
0.0
 41
1.0
 10
661.4027817756027
 20
626.8034975254343
 30
0.0
 41
1.0
 10
661.1948503806448
 20
626.7627129592879
 30
0.0
 41
1.0
 10
660.9696482876111
 20
626.7164057697655
 30
0.0
 41
1.0
 10
660.7439261561879
 20
626.6684891687235
 30
0.0
 41
1.0
 10
660.5197789447711
 20
626.6202947638397
 30
0.0
 41
1.0
 10
660.2669047385087
 20
626.5656555690087
 30
0.0
 41
1.0
 10
659.9981887468402
 20
626.5080852349092
 30
0.0
 41
1.0
 10
659.7087777803007
 20
626.4474365904947
 30
0.0
 41
1.0
 10
659.4494006935582
 20
626.3944953071882
 30
0.0
 41
1.0
 10
659.180066070589
 20
626.3415117211921
 30
0.0
 41
1.0
 10
658.9631467604476
 20
626.3002257862775
 30
0.0
 41
1.0
 10
658.7058560790547
 20
626.252601445542
 30
0.0
 41
1.0
 10
658.3906648239372
 20
626.1964835130092
 30
0.0
 41
1.0
 10
658.1520758470037
 20
626.1562889825886
 30
0.0
 41
1.0
 10
657.8625725367388
 20
626.1077062336831
 30
0.0
 41
1.0
 10
657.6256635810805
 20
626.0696449775772
 30
0.0
 41
1.0
 10
657.1333816081469
 20
625.988424632475
 30
0.0
 41
1.0
 10
656.7633577345958
 20
625.9416497899046
 30
0.0
 41
1.0
 10
656.2278717227528
 20
625.8931510637185
 30
0.0
 41
0.9999999999999998
 10
655.7592836465763
 20
625.8682497241752
 30
0.0
 41
1.0
 10
655.3678224831301
 20
625.8560511189152
 30
0.0
 41
1.0
 10
654.9961294467683
 20
625.8514452184904
 30
0.0
 41
0.9999999999999998
 10
654.5370246348737
 20
625.8550798806545
 30
0.0
 41
1.0
 10
654.1583151911058
 20
625.8738894282437
 30
0.0
 41
1.0
 10
653.7549461284339
 20
625.9107195242767
 30
0.0
 41
1.0
 10
653.4030751434865
 20
625.9539191152137
 30
0.0
 41
1.0
 10
652.9998547551517
 20
626.0207276095338
 30
0.0
 41
1.0
 10
652.6156690741745
 20
626.1015239332941
 30
0.0
 41
1.0
 10
652.2558708678898
 20
626.1914400988807
 30
0.0
 41
1.0
 10
651.877861077085
 20
626.301239376135
 30
0.0
 41
1.0
 10
651.4282040678248
 20
626.4540990340333
 30
0.0
 41
1.0
 10
650.9688524399138
 20
626.639797090188
 30
0.0
 41
1.0
 10
650.5330800818609
 20
626.845656165925
 30
0.0
 41
1.0
 10
650.1325287149902
 20
627.0595114956075
 30
0.0
 41
1.0
 10
649.7938757760826
 20
627.2638131853701
 30
0.0
 41
1.0
 10
649.4932480378379
 20
627.4638160721281
 30
0.0
 41
1.0
 10
649.2577291676897
 20
627.6323022672122
 30
0.0
 41
1.0
 10
648.9653203536781
 20
627.8570716644606
 30
0.0
 41
1.0
 10
648.6351538657603
 20
628.1353665972456
 30
0.0
 41
1.0
 10
648.3422333995312
 20
628.4119279384002
 30
0.0
 41
1.0
 10
648.0634043543632
 20
628.6955153297594
 30
0.0
 41
1.0
 10
647.8334764284572
 20
628.9467769512071
 30
0.0
 41
1.0
 10
647.5195675825662
 20
629.3197427415907
 30
0.0
 41
1.0
 10
647.2483256509831
 20
629.6738124323995
 30
0.0
 41
1.0
 10
646.9519429173997
 20
630.0981929749776
 30
0.0
 41
1.0
 10
646.6841732727042
 20
630.5147197805548
 30
0.0
 41
1.0
 10
646.4279626086208
 20
630.9523810376357
 30
0.0
 41
1.0
 10
646.1714549127178
 20
631.4308753841327
 30
0.0
 41
1.0
 10
645.9730351099348
 20
631.8399792594258
 30
0.0
 41
1.0
 10
645.7897996041773
 20
632.2522350847907
 30
0.0
 41
1.0
 10
645.6245799188097
 20
632.6481928973138
 30
0.0
 41
1.0
 10
645.4386618542247
 20
633.1366849299475
 30
0.0
 41
1.0
 10
645.2512559287161
 20
633.6828888719259
 30
0.0
 41
1.0
 10
645.0893892922691
 20
634.2048346073632
 30
0.0
 41
1.0
 10
644.9284216631375
 20
634.7774257466811
 30
0.0
 41
1.0
 10
644.7606580777909
 20
635.4451342629886
 30
0.0
 41
1.0
 10
644.5872293397242
 20
636.2446690369887
 30
0.0
 41
1.0
 10
644.4365511435321
 20
637.0712670414887
 30
0.0
 41
1.0
 10
644.3134235735006
 20
637.869155458935
 30
0.0
 41
1.0
 10
644.2142856535411
 20
638.6193602164221
 30
0.0
 41
0.9999999999999996
 10
644.1173843133769
 20
639.4806502870947
 30
0.0
 41
0.9999999999999998
 10
644.0317343212018
 20
640.4287271256038
 30
0.0
 41
1.0
 10
643.9602008664151
 20
641.4369612557052
 30
0.0
 41
1.0
 10
643.897824160083
 20
642.5467420491663
 30
0.0
 41
1.0
 10
643.8491707053757
 20
643.7656309722122
 30
0.0
 41
1.0
 10
643.8134890232345
 20
645.1992252084392
 30
0.0
 41
1.0
 10
643.7890557664721
 20
647.0673804406795
 30
0.0
 41
0.9999999999999998
 10
643.7866530387
 20
648.4994206378287
 30
0.0
 41
1.0
 10
643.7872223375702
 20
649.4170426633568
 30
0.0
 41
1.0
  0
SPLINE
  5
4C
330
2
100
AcDbEntity
  8
OUTLINE
  6
CONTINUOUS
100
AcDbSpline
210
0.0
220
0.0
230
1.0
 70
    12
 71
     3
 72
    27
 73
    23
 74
     0
 42
0.0000000001
 43
0.0000000001
 40
0.0
 40
0.0
 40
0.0
 40
0.0
 40
0.0482537348891826
 40
0.0907570918396296
 40
0.1602130021164609
 40
0.2435890967895355
 40
0.3443559619181333
 40
0.3923647071289584
 40
0.3923647071289584
 40
0.4355934215950291
 40
0.5007480883232791
 40
0.5486978790770177
 40
0.6100740534030324
 40
0.6461847166060836
 40
0.6800044462385465
 40
0.7356965488388421
 40
0.7860864860843085
 40
0.8256200206804928
 40
0.8687193669090643
 40
0.9093476936459307
 40
0.9559582790903624
 40
1.0
 40
1.0
 40
1.0
 40
1.0
 10
655.4054765369072
 20
624.3419992441272
 30
0.0
 41
1.0
 10
655.52066262384
 20
624.3593385381354
 30
0.0
 41
1.0
 10
655.7032496356587
 20
624.3871190292561
 30
0.0
 41
0.9999999999999998
 10
656.0540356971132
 20
624.4473463288239
 30
0.0
 41
1.0
 10
656.4673798210632
 20
624.5291252437937
 30
0.0
 41
1.0
 10
656.9949871061766
 20
624.6537531429602
 30
0.0
 41
1.0
 10
657.4744546998561
 20
624.8034128479121
 30
0.0
 41
1.0
 10
657.7920177814876
 20
624.8917842585131
 30
0.0
 41
1.0
 10
658.0154694600367
 20
624.9546893926549
 30
0.0
 41
1.0
 10
658.2353397485599
 20
625.0288425016547
 30
0.0
 41
1.0
 10
658.5818007465896
 20
625.1341939621506
 30
0.0
 41
1.0
 10
658.9462247742639
 20
625.2577069638902
 30
0.0
 41
1.0
 10
659.2440836768113
 20
625.3626521121044
 30
0.0
 41
1.0
 10
659.5041378558367
 20
625.4584480335397
 30
0.0
 41
1.0
 10
659.7467806819654
 20
625.5500761910971
 30
0.0
 41
1.0
 10
660.0070691167161
 20
625.651224223443
 30
0.0
 41
1.0
 10
660.2629660403931
 20
625.752967786855
 30
0.0
 41
1.0
 10
660.483055208173
 20
625.8417566478977
 30
0.0
 41
1.0
 10
660.6741064314377
 20
625.9196617905868
 30
0.0
 41
1.0
 10
660.8608923837067
 20
625.9964928841923
 30
0.0
 41
1.0
 10
661.0318885303386
 20
626.0673646956184
 30
0.0
 41
1.0
 10
661.136835268303
 20
626.1111348650391
 30
0.0
 41
1.0
 10
661.1845764643552
 20
626.1310856262642
 30
0.0
 41
1.0
  0
SPLINE
  5
4D
330
2
100
AcDbEntity
  8
OUTLINE
  6
CONTINUOUS
100
AcDbSpline
210
0.0
220
0.0
230
1.0
 70
    12
 71
     3
 72
    71
 73
    67
 74
     0
 42
0.0000000001
 43
0.0000000001
 40
0.0
 40
0.0
 40
0.0
 40
0.0
 40
0.0127513913194001
 40
0.022613513020882
 40
0.0426752622562469
 40
0.0610132607262759
 40
0.0696665337219808
 40
0.094851763990422
 40
0.1079565452279749
 40
0.1209199709344468
 40
0.1398320458397165
 40
0.1623847667495504
 40
0.1739216936450431
 40
0.1880275655598904
 40
0.1947342359057566
 40
0.2142201770637287
 40
0.2163418353119992
 40
0.2163418353119992
 40
0.2348880901639323
 40
0.2546529531713631
 40
0.2621089302217096
 40
0.2812891602204904
 40
0.2870615232707971
 40
0.3063812708419307
 40
0.3276547814103684
 40
0.3494608036368153
 40
0.3632120833387251
 40
0.3756887288938353
 40
0.3968235431608341
 40
0.4108852971758397
 40
0.4292167057730678
 40
0.4374959389538391
 40
0.4561290735175393
 40
0.4669809760625914
 40
0.4669809760625914
 40
0.483310513985304
 40
0.5011930979447961
 40
0.5120467563960789
 40
0.528021802965229
 40
0.540117577909999
 40
0.5511011914772813
 40
0.5723870021351038
 40
0.5818028990303647
 40
0.5947322790476485
 40
0.6118195620901177
 40
0.6289818795776525
 40
0.6437777238519757
 40
0.6573803275713212
 40
0.6723663912303861
 40
0.6838241286771854
 40
0.6971161000336458
 40
0.7115397646147425
 40
0.7325648732022037
 40
0.7493398840552038
 40
0.7679072921611638
 40
0.7831192761359019
 40
0.8038890615807064
 40
0.8198468801258709
 40
0.8378290541349016
 40
0.8568657138356943
 40
0.878776783460146
 40
0.9028244068297567
 40
0.9327826069220543
 40
0.9599773789934511
 40
0.9851871496684159
 40
1.0
 40
1.0
 40
1.0
 40
1.0
 10
655.4054738669637
 20
624.3420144586548
 30
0.0
 41
1.0
 10
655.2484685976304
 20
624.311899570041
 30
0.0
 41
1.0
 10
654.9694554206771
 20
624.2618846289619
 30
0.0
 41
1.0
 10
654.4422478911188
 20
624.1766171297036
 30
0.0
 41
1.0
 10
653.8441344310808
 20
624.0959999745108
 30
0.0
 41
1.0
 10
653.2579849881617
 20
624.0448208983116
 30
0.0
 41
1.0
 10
652.6073504533406
 20
624.003419329585
 30
0.0
 41
1.0
 10
652.021423128218
 20
623.9810275952581
 30
0.0
 41
1.0
 10
651.3819273608213
 20
623.9750354321145
 30
0.0
 41
0.9999999999999998
 10
650.8209454427874
 20
623.9823587401238
 30
0.0
 41
1.0
 10
650.1429372163384
 20
624.0110244788239
 30
0.0
 41
1.0
 10
649.4844307495091
 20
624.0665432297364
 30
0.0
 41
1.0
 10
648.8885563890658
 20
624.1393931674173
 30
0.0
 41
1.0
 10
648.4893144482863
 20
624.2002200122961
 30
0.0
 41
0.9999999999999996
 10
647.9970706687309
 20
624.2875912812674
 30
0.0
 41
1.0
 10
647.6383213790736
 20
624.3633689972624
 30
0.0
 41
1.0
 10
647.3907598553319
 20
624.4227733986868
 30
0.0
 41
1.0
 10
647.115285348473
 20
624.489055229194
 30
0.0
 41
1.0
 10
646.687560328788
 20
624.6046290243052
 30
0.0
 41
1.0
 10
646.1322220129567
 20
624.7815680351695
 30
0.0
 41
1.0
 10
645.5901517451308
 20
624.9770237333996
 30
0.0
 41
1.0
 10
645.2146767769062
 20
625.1270343202036
 30
0.0
 41
1.0
 10
644.7093512309102
 20
625.3480579212596
 30
0.0
 41
1.0
 10
644.1871006351092
 20
625.5967637917901
 30
0.0
 41
1.0
 10
643.4988901103287
 20
625.9669158066635
 30
0.0
 41
1.0
 10
642.8876348352196
 20
626.3348168377273
 30
0.0
 41
0.9999999999999996
 10
642.3824794893489
 20
626.66548532474
 30
0.0
 41
1.0
 10
641.8930604862002
 20
627.0050734944637
 30
0.0
 41
1.0
 10
641.4115142512132
 20
627.364281940434
 30
0.0
 41
1.0
 10
640.8859956814239
 20
627.7843892831902
 30
0.0
 41
1.0
 10
640.4969564020152
 20
628.1163232943478
 30
0.0
 41
1.0
 10
640.0761146509458
 20
628.4952243969419
 30
0.0
 41
1.0
 10
639.7225469350287
 20
628.8307627972102
 30
0.0
 41
1.0
 10
639.4798064556251
 20
629.0768991809122
 30
0.0
 41
1.0
 10
639.2164002733216
 20
629.3449990662097
 30
0.0
 41
1.0
 10
638.9445790277341
 20
629.6371943970228
 30
0.0
 41
1.0
 10
638.5610788163581
 20
630.0711657245915
 30
0.0
 41
1.0
 10
638.20341144848
 20
630.5022708748428
 30
0.0
 41
1.0
 10
637.9002594086955
 20
630.8873672147582
 30
0.0
 41
1.0
 10
637.6077675861537
 20
631.2813424315118
 30
0.0
 41
1.0
 10
637.2859538690668
 20
631.7364463602771
 30
0.0
 41
1.0
 10
636.9978440744844
 20
632.1736054691382
 30
0.0
 41
1.0
 10
636.7112002189842
 20
632.640097414589
 30
0.0
 41
1.0
 10
636.4620919960571
 20
633.0675077336723
 30
0.0
 41
1.0
 10
636.1806064541532
 20
633.5877196245688
 30
0.0
 41
1.0
 10
635.9076852220696
 20
634.1392046712858
 30
0.0
 41
1.0
 10
635.6710230744629
 20
634.6601857909949
 30
0.0
 41
1.0
 10
635.4597285674461
 20
635.1631805417913
 30
0.0
 41
1.0
 10
635.2774308367655
 20
635.6336191403261
 30
0.0
 41
1.0
 10
635.1079000975487
 20
636.1054764662052
 30
0.0
 41
1.0
 10
634.9509498128717
 20
636.5750145061787
 30
0.0
 41
1.0
 10
634.7693685872073
 20
637.1647372159814
 30
0.0
 41
1.0
 10
634.5927972349659
 20
637.803420651288
 30
0.0
 41
1.0
 10
634.421556677984
 20
638.4994228746286
 30
0.0
 41
1.0
 10
634.2832480085544
 20
639.1285072959857
 30
0.0
 41
0.9999999999999998
 10
634.1486386351816
 20
639.8119496427025
 30
0.0
 41
1.0
 10
634.0343405767389
 20
640.466885015639
 30
0.0
 41
1.0
 10
633.9275814575302
 20
641.1602600500258
 30
0.0
 41
1.0
 10
633.8356318415149
 20
641.8343057020297
 30
0.0
 41
1.0
 10
633.7462046746908
 20
642.5868916343879
 30
0.0
 41
1.0
 10
633.6620595645898
 20
643.4198251908979
 30
0.0
 41
1.0
 10
633.5811596435287
 20
644.3957592328443
 30
0.0
 41
1.0
 10
633.5145710811333
 20
645.4427892986362
 30
0.0
 41
1.0
 10
633.4664593746301
 20
646.5066022662336
 30
0.0
 41
1.0
 10
633.4407850849734
 20
647.3773175636478
 30
0.0
 41
1.0
 10
633.4315235754437
 20
647.893616724607
 30
0.0
 41
1.0
 10
633.428912526965
 20
648.0849882387356
 30
0.0
 41
1.0
  0
SPLINE
  5
4E
330
2
100
AcDbEntity
  8
OUTLINE
  6
CONTINUOUS
100
AcDbSpline
210
0.0
220
0.0
230
1.0
 70
    12
 71
     3
 72
    55
 73
    51
 74
     0
 42
0.0000000001
 43
0.0000000001
 40
0.0
 40
0.0
 40
0.0
 40
0.0
 40
0.085870120968057
 40
0.1344572653469252
 40
0.1765439049243397
 40
0.2221041839008177
 40
0.250862372823705
 40
0.2829336780804231
 40
0.3184713150221184
 40
0.3430529515493125
 40
0.3672006933382044
 40
0.3922247637795175
 40
0.4220470043450368
 40
0.4502452635319477
 40
0.4735194233361204
 40
0.49068449614777
 40
0.5097977628411749
 40
0.5284634942939636
 40
0.5490618402394813
 40
0.5629330468394508
 40
0.5726340169231347
 40
0.595792691233412
 40
0.6103263028648889
 40
0.6294997263735841
 40
0.6484599245730935
 40
0.661366421962369
 40
0.6834920403711731
 40
0.6953167668555677
 40
0.7130272217230927
 40
0.7198088468925621
 40
0.7379585410062399
 40
0.7564124695766833
 40
0.7665953171803574
 40
0.7781033487390713
 40
0.7879586995932577
 40
0.8059492153639945
 40
0.8211931204027465
 40
0.8374065454767041
 40
0.8583747783865762
 40
0.8749844054986038
 40
0.8888972004162488
 40
0.9010047579415465
 40
0.9151183392551676
 40
0.9313602322246444
 40
0.9451780230303572
 40
0.9535078621497095
 40
0.97505264527139
 40
0.9873850304239264
 40
0.9972365073208319
 40
1.0
 40
1.0
 40
1.0
 40
1.0
 10
642.2121380439826
 20
649.4181697761846
 30
0.0
 41
1.0
 10
642.2114971806657
 20
648.4983234796458
 30
0.0
 41
1.0
 10
642.2136759711515
 20
647.0597311948957
 30
0.0
 41
1.0
 10
642.2388419357421
 20
645.1696897397341
 30
0.0
 41
1.0
 10
642.276846194114
 20
643.7117480484585
 30
0.0
 41
1.0
 10
642.3294896210964
 20
642.4666111664476
 30
0.0
 41
1.0
 10
642.3973064419413
 20
641.3296641879395
 30
0.0
 41
1.0
 10
642.4738929317222
 20
640.3008281046477
 30
0.0
 41
1.0
 10
642.5654564602105
 20
639.3180508508343
 30
0.0
 41
1.0
 10
642.6701159660678
 20
638.4219762618386
 30
0.0
 41
1.0
 10
642.7774910522116
 20
637.6396977543257
 30
0.0
 41
1.0
 10
642.9113048468297
 20
636.8046163478139
 30
0.0
 41
1.0
 10
643.0765946418232
 20
635.9309266100773
 30
0.0
 41
1.0
 10
643.2679892186761
 20
635.0817659144231
 30
0.0
 41
1.0
 10
643.4531846538416
 20
634.3705793907852
 30
0.0
 41
1.0
 10
643.631039262936
 20
633.7583019622783
 30
0.0
 41
1.0
 10
643.8100919670482
 20
633.1979328421335
 30
0.0
 41
1.0
 10
644.0179403751073
 20
632.6084637812437
 30
0.0
 41
1.0
 10
644.224762539889
 20
632.0784197052351
 30
0.0
 41
1.0
 10
644.4107218001909
 20
631.6435941816685
 30
0.0
 41
1.0
 10
644.6182967737971
 20
631.1884002480251
 30
0.0
 41
1.0
 10
644.8446778040597
 20
630.7340671522179
 30
0.0
 41
1.0
 10
645.1387792239229
 20
630.2009754505498
 30
0.0
 41
1.0
 10
645.4297045392786
 20
629.7178403152019
 30
0.0
 41
1.0
 10
645.7307577380666
 20
629.2616631515897
 30
0.0
 41
1.0
 10
646.066438633295
 20
628.7910489970203
 30
0.0
 41
1.0
 10
646.3747612832321
 20
628.3949905911895
 30
0.0
 41
1.0
 10
646.7331735327778
 20
627.9737235367673
 30
0.0
 41
1.0
 10
646.9966248574019
 20
627.6875604135288
 30
0.0
 41
1.0
 10
647.3170583111005
 20
627.3624161820212
 30
0.0
 41
1.0
 10
647.6546696064738
 20
627.0431243345937
 30
0.0
 41
1.0
 10
648.0367506978896
 20
626.7188586172806
 30
0.0
 41
1.0
 10
648.3762676208316
 20
626.4552794032566
 30
0.0
 41
1.0
 10
648.6498808110894
 20
626.2571911487739
 30
0.0
 41
1.0
 10
648.9991806020116
 20
626.0215558140274
 30
0.0
 41
1.0
 10
649.3926463532247
 20
625.7802623385718
 30
0.0
 41
1.0
 10
649.8577777223593
 20
625.5271448792541
 30
0.0
 41
1.0
 10
650.3634262167651
 20
625.2831049813667
 30
0.0
 41
1.0
 10
650.8958689415967
 20
625.0626548687137
 30
0.0
 41
1.0
 10
651.4165396732146
 20
624.8810151477622
 30
0.0
 41
1.0
 10
651.8539749646325
 20
624.7504662829582
 30
0.0
 41
1.0
 10
652.2701894702914
 20
624.6435182107465
 30
0.0
 41
1.0
 10
652.7146247573291
 20
624.5474018530943
 30
0.0
 41
1.0
 10
653.1809741983216
 20
624.4679256639577
 30
0.0
 41
1.0
 10
653.5888478127978
 20
624.4166556505819
 30
0.0
 41
1.0
 10
654.0545832146981
 20
624.3729080933202
 30
0.0
 41
1.0
 10
654.5062252414996
 20
624.3519009425852
 30
0.0
 41
1.0
 10
654.9743485968092
 20
624.3463224475285
 30
0.0
 41
1.0
 10
655.2411872359107
 20
624.3434732912041
 30
0.0
 41
1.0
 10
655.3759612096563
 20
624.3422498944028
 30
0.0
 41
1.0
 10
655.405476807618
 20
624.341999241828
 30
0.0
 41
1.0
  0
SPLINE
  5
4F
330
2
100
AcDbEntity
  8
OUTLINE
  6
CONTINUOUS
100
AcDbSpline
210
0.0
220
0.0
230
1.0
 70
    12
 71
     3
 72
    39
 73
    35
 74
     0
 42
0.0000000001
 43
0.0000000001
 40
0.0
 40
0.0
 40
0.0
 40
0.0
 40
0.0002364911996213
 40
0.0219313635523887
 40
0.0434416331803948
 40
0.0647532755720898
 40
0.0859097073273405
 40
0.1047683900067856
 40
0.1235395659092091
 40
0.1422410727889803
 40
0.1793966653305849
 40
0.1979472733347505
 40
0.2220173530556572
 40
0.2461442964101835
 40
0.2672268912881471
 40
0.2884036355644706
 40
0.3096916792476641
 40
0.3332401112551467
 40
0.3569535916476513
 40
0.3808478480915684
 40
0.4273915306963832
 40
0.4509358984249643
 40
0.4989665285978214
 40
0.5462446375171705
 40
0.5928098752379081
 40
0.6412788806611474
 40
0.6944160449150952
 40
0.7227175985208074
 40
0.7795344956794633
 40
0.8355177968967309
 40
0.8858987848465346
 40
0.94067040637931
 40
0.9740336337721171
 40
1.0
 40
1.0
 40
1.0
 40
1.0
 10
643.7871334031106
 20
649.4170414917046
 30
0.0
 41
1.0
 10
643.787115715169
 20
649.4173082202324
 30
0.0
 41
1.0
 10
643.7857004155621
 20
649.4386597164007
 30
0.0
 41
1.0
 10
643.7824053329753
 20
649.4849766594425
 30
0.0
 41
1.0
 10
643.7770077244135
 20
649.5510496172177
 30
0.0
 41
1.0
 10
643.7708845836726
 20
649.61758220934
 30
0.0
 41
1.0
 10
643.7643335368666
 20
649.6812117900717
 30
0.0
 41
1.0
 10
643.757415748696
 20
649.7421794126515
 30
0.0
 41
1.0
 10
643.7502151443964
 20
649.8004067932264
 30
0.0
 41
1.0
 10
643.7399271454774
 20
649.8771605516484
 30
0.0
 41
0.9999999999999996
 10
643.7285687545545
 20
649.9528750967206
 30
0.0
 41
1.0
 10
643.7152807035227
 20
650.0327346933581
 30
0.0
 41
1.0
 10
643.7034772710672
 20
650.0985855145794
 30
0.0
 41
1.0
 10
643.6904682060579
 20
650.1656193083631
 30
0.0
 41
1.0
 10
643.6773661285756
 20
650.2285427303618
 30
0.0
 41
0.9999999999999998
 10
643.6642902476637
 20
650.2875257824333
 30
0.0
 41
1.0
 10
643.6501872924967
 20
650.3474270415757
 30
0.0
 41
1.0
 10
643.6350127083243
 20
650.4080762967742
 30
0.0
 41
1.0
 10
643.6187293903635
 20
650.4692854195353
 30
0.0
 41
1.0
 10
643.5965342345394
 20
650.5479169732016
 30
0.0
 41
1.0
 10
643.5735073654577
 20
650.6228901735899
 30
0.0
 41
1.0
 10
643.5436576217552
 20
650.7127459902948
 30
0.0
 41
1.0
 10
643.5127766579726
 20
650.79869745624
 30
0.0
 41
1.0
 10
643.4748211875235
 20
650.8943524156157
 30
0.0
 41
0.9999999999999982
 10
643.4358800385338
 20
650.9836110990568
 30
0.0
 41
1.000000000000001
 10
643.3946145494022
 20
651.0696574372141
 30
0.0
 41
1.0
 10
643.357930023047
 20
651.1387925614285
 30
0.0
 41
1.0
 10
643.3185998035996
 20
651.2071024089205
 30
0.0
 41
1.0
 10
643.2782298114647
 20
651.2712573039471
 30
0.0
 41
1.0
 10
643.231409805104
 20
651.3370596273476
 30
0.0
 41
0.9999999999999992
 10
643.1852421197141
 20
651.3942984766872
 30
0.0
 41
0.9999999999999996
 10
643.1457490160305
 20
651.4369583894522
 30
0.0
 41
1.0
 10
643.1134473670661
 20
651.467586324381
 30
0.0
 41
1.0
 10
643.0967530459325
 20
651.4819305937082
 30
0.0
 41
1.0
 10
643.0894689953502
 20
651.4879049992477
 30
0.0
 41
1.0
  0
ARC
  5
50
330
2
100
AcDbEntity
  8
OUTLINE
  6
CONTINUOUS
100
AcDbCircle
 10
651.8944597909166
 20
641.5769162973482
 30
0.0
 40
19.15049310699018
100
AcDbArc
 50
195.2206297154029
 51
270.3585787210986
  0
LWPOLYLINE
  5
51
330
2
100
AcDbEntity
  8
OUTLINE
  6
CONTINUOUS
100
AcDbPolyline
 90
       19
 70
     0
 43
0.0
 10
635.9600006823316
 20
660.7294978313278
 10
636.5582478563632
 20
660.6972864128501
 10
637.1318853316173
 20
660.6671739436515
 10
637.6830019701027
 20
660.6387797405521
 10
638.2132842271362
 20
660.6117935393604
 10
638.7240850794113
 20
660.5859633760287
 10
639.2164853222997
 20
660.5610856219532
 10
639.4156186325722
 20
660.5510021535665
 10
639.8772431013163
 20
660.5275046674513
 10
640.3218473810316
 20
660.5045855125207
 10
640.7492883816529
 20
660.4821379455387
 10
641.1595148996002
 20
660.4600791452581
 10
641.5525549087037
 20
660.4383465899559
 10
641.9285033014707
 20
660.416894639774
 10
642.2742345847288
 20
660.3964893414485
 10
642.6044472574313
 20
660.3762960495641
 10
642.9193306220009
 20
660.3563045611413
 10
643.2190842253658
 20
660.3365115855208
 10
643.3992839789139
 20
660.3242102348257
  0
ARC
  5
52
330
2
100
AcDbEntity
  8
OUTLINE
  6
CONTINUOUS
100
AcDbCircle
 10
651.8944597909166
 20
641.5769162973482
 30
0.0
 40
19.15049310699018
100
AcDbArc
 50
195.2206297154029
 51
277.8477658983005
  0
LINE
  5
53
330
2
100
AcDbEntity
  8
OUTLINE
  6
CONTINUOUS
100
AcDbLine
 10
641.0024125928798
 20
649.4181540680719
 30
0.0
 11
633.9227384589142
 21
649.4180597452411
 31
0.0
  0
LINE
  5
54
330
2
100
AcDbEntity
  8
OUTLINE
  6
CONTINUOUS
100
AcDbLine
 10
641.2436294338862
 20
650.4259523028066
 30
0.0
 11
632.7088903811112
 21
650.4259523028066
 31
0.0
  0
ARC
  5
55
330
2
100
AcDbEntity
  8
OUTLINE
  6
CONTINUOUS
100
AcDbCircle
 10
680.5851231485867
 20
649.3830929497835
 30
0.0
 40
48.88415345731704
100
AcDbArc
 50
179.9590493552016
 51
195.2206320260966
  0
LWPOLYLINE
  5
56
330
2
100
AcDbEntity
  8
OUTLINE
  6
CONTINUOUS
100
AcDbPolyline
 90
       15
 70
     0
 43
0.0
 10
627.9350015969253
 20
661.1435422814873
 10
628.6101549592484
 20
661.108715106026
 10
629.2483264955063
 20
661.0776681548507
 10
629.8493361777582
 20
661.0495570428082
 10
630.4149721633421
 20
661.0235696672329
 10
630.9481295343016
 20
660.9989966934572
 10
631.4522561099375
 20
660.9752463164127
 10
631.6871232824196
 20
660.9638878626224
 10
631.9164725846185
 20
660.9525576947143
 10
632.3607574151606
 20
660.9298614039503
 10
632.7862840768534
 20
660.9073059503462
 10
633.586509556801
 20
660.8632633709349
 10
634.338463264858
 20
660.8207193006759
 10
635.0356768740297
 20
660.7810642459884
 10
635.6836897108117
 20
660.7447036526464
  0
LWPOLYLINE
  5
57
330
2
100
AcDbEntity
  8
OUTLINE
  6
CONTINUOUS
100
AcDbPolyline
 90
        3
 70
     0
 43
0.0
 10
635.6837386610849
 20
660.7447009405335
 10
635.85835409738
 20
660.7350672353864
 10
635.9598556018241
 20
660.729505759632
  0
ARC
  5
58
330
2
100
AcDbEntity
  8
OUTLINE
  6
CONTINUOUS
100
AcDbCircle
 10
632.7088903811112
 20
649.418031612965
 30
0.0
 40
1.007920689841588
100
AcDbArc
 50
90.0
 51
180.0
  0
ARC
  5
59
330
2
100
AcDbEntity
  8
OUTLINE
  6
CONTINUOUS
100
AcDbCircle
 10
650.6495198026279
 20
638.1745481276067
 30
0.0
 40
16.12673091530543
100
AcDbArc
 50
315.7075435791003
 51
350.9745527692988
  0
ARC
  5
5A
330
2
100
AcDbEntity
  8
OUTLINE
  6
CONTINUOUS
100
AcDbCircle
 10
664.1359021146493
 20
624.5961388857701
 30
0.0
 40
3.023762069524766
100
AcDbArc
 50
129.9871034782989
 51
147.9382351805014
  0
ARC
  5
5B
330
2
100
AcDbEntity
  8
OUTLINE
  6
CONTINUOUS
100
AcDbCircle
 10
652.8578206626543
 20
634.5875502630653
 30
0.0
 40
12.09504827809906
100
AcDbArc
 50
277.8477655991019
 51
316.1028292582016
  0
ARC
  5
5C
330
2
100
AcDbEntity
  8
OUTLINE
  6
CONTINUOUS
100
AcDbCircle
 10
661.9060067900996
 20
682.6255489995973
 30
0.0
 40
29.22970000540606
100
AcDbArc
 50
229.5974108547978
 51
270.0689972376981
  0
ARC
  5
5D
330
2
100
AcDbEntity
  8
OUTLINE
  6
CONTINUOUS
100
AcDbCircle
 10
647.1903647184124
 20
682.6255489995973
 30
0.0
 40
17.6386120722278
100
AcDbArc
 50
280.8304028990993
 51
295.1695971097024
  0
ARC
  5
5E
330
2
100
AcDbEntity
  8
OUTLINE
  6
CONTINUOUS
100
AcDbCircle
 10
647.1903647184124
 20
682.6255489995973
 30
0.0
 40
17.13465172730701
100
AcDbArc
 50
280.8304029052005
 51
295.1695970931982
  0
ARC
  5
5F
330
2
100
AcDbEntity
  8
OUTLINE
  6
CONTINUOUS
100
AcDbCircle
 10
647.1903647184124
 20
682.6255489995973
 30
0.0
 40
18.14257241714859
100
AcDbArc
 50
280.7848967861017
 51
295.2151013192013
  0
ARC
  5
60
330
2
100
AcDbEntity
  8
OUTLINE
  6
CONTINUOUS
100
AcDbCircle
 10
647.1903647184124
 20
682.6255489995973
 30
0.0
 40
18.64653276206939
100
AcDbArc
 50
280.7848958952007
 51
295.2151010178969
  0
ARC
  5
61
330
2
100
AcDbEntity
  8
OUTLINE
  6
CONTINUOUS
100
AcDbCircle
 10
650.4573567215219
 20
665.5486128111085
 30
0.0
 40
0.2519802047138592
100
AcDbArc
 50
190.0001146999971
 51
280.8304118613036
  0
ARC
  5
62
330
2
100
AcDbEntity
  8
OUTLINE
  6
CONTINUOUS
100
AcDbCircle
 10
650.4573567227314
 20
665.5486128111085
 30
0.0
 40
0.2519802055201958
100
AcDbArc
 50
100.8303937326977
 51
190.0001147130011
  0
ARC
  5
63
330
2
100
AcDbEntity
  8
OUTLINE
  6
CONTINUOUS
100
AcDbCircle
 10
650.6323973455313
 20
664.5559065740151
 30
0.0
 40
0.2519802002790082
100
AcDbArc
 50
100.7849498127
 51
190.0000055929987
  0
LINE
  5
64
330
2
100
AcDbEntity
  8
OUTLINE
  6
CONTINUOUS
100
AcDbLine
 10
650.2092047503731
 20
665.5048564110217
 30
0.0
 11
650.2092047503731
 21
665.5048564110217
 31
0.0
  0
LINE
  5
65
330
2
100
AcDbEntity
  8
OUTLINE
  6
CONTINUOUS
100
AcDbLine
 10
650.3842455521798
 20
664.5121506928058
 30
0.0
 11
650.3842455521798
 21
664.5121506928058
 31
0.0
  0
ARC
  5
66
330
2
100
AcDbEntity
  8
OUTLINE
  6
CONTINUOUS
100
AcDbCircle
 10
650.6323972705422
 20
664.5559061756848
 30
0.0
 40
0.2519797672762798
100
AcDbArc
 50
190.0000909427994
 51
280.7848115227972
  0
LWPOLYLINE
  5
67
330
2
100
AcDbEntity
  8
OUTLINE
  6
CONTINUOUS
100
AcDbPolyline
 90
       19
 70
     0
 43
0.0
 10
643.3981479910149
 20
660.3242888175641
 10
643.8375911838102
 20
660.2927847856452
 10
644.244575158003
 20
660.2612912232002
 10
644.4369314268648
 20
660.2454728203427
 10
644.6223724550845
 20
660.2295720058585
 10
644.8012563343057
 20
660.2135651843236
 10
644.9739250318607
 20
660.1974300863344
 10
645.1407061893022
 20
660.18114537784
 10
645.3019146407369
 20
660.1646903448594
 10
645.5345826492089
 20
660.1396900655262
 10
645.7460171690662
 20
660.1155533387732
 10
645.9391090152221
 20
660.0920786195711
 10
646.1164810944454
 20
660.0690829360451
 10
646.280506169363
 20
660.0464082123639
 10
646.342064250591
 20
660.0374393317037
 10
646.4100839142129
 20
660.027177218647
 10
646.4848984646827
 20
660.0155638181722
 10
646.6434836763304
 20
659.9900792301244
 10
646.6434836763304
 20
659.9900792301244
  0
ARC
  5
68
330
2
100
AcDbEntity
  8
OUTLINE
  6
CONTINUOUS
100
AcDbCircle
 10
640.0843841793955
 20
649.5266410152371
 30
0.0
 40
2.130516960287192
100
AcDbArc
 50
357.0816320822984
 51
27.9770786761972
  0
ARC
  5
69
330
2
100
AcDbEntity
  8
OUTLINE
  6
CONTINUOUS
100
AcDbCircle
 10
641.2436294338862
 20
651.4338729926481
 30
0.0
 40
1.007920689841588
100
AcDbArc
 50
270.0
 51
0.0
  0
LINE
  5
6A
330
2
100
AcDbEntity
  8
OUTLINE
  6
CONTINUOUS
100
AcDbLine
 10
642.2515501237277
 20
656.6855565103228
 30
0.0
 11
642.2515501237277
 21
651.4338729926481
 31
0.0
  0
ARC
  5
6B
330
2
100
AcDbEntity
  8
OUTLINE
  6
CONTINUOUS
100
AcDbCircle
 10
654.5848834732822
 20
666.8897285920247
 30
0.0
 40
0.2519796749507447
100
AcDbArc
 50
26.00011299380044
 51
115.1696030212022
  0
ARC
  5
6C
330
2
100
AcDbEntity
  8
OUTLINE
  6
CONTINUOUS
100
AcDbCircle
 10
654.5848834740885
 20
666.8897285960565
 30
0.0
 40
0.2519806731953959
100
AcDbArc
 50
295.1695917618001
 51
26.00011375270409
  0
LINE
  5
6D
330
2
100
AcDbEntity
  8
OUTLINE
  6
CONTINUOUS
100
AcDbLine
 10
654.8113615642238
 20
667.0001898901192
 30
0.0
 11
654.8113615642238
 21
667.0001898901192
 31
0.0
  0
LINE
  5
6E
330
2
100
AcDbEntity
  8
OUTLINE
  6
CONTINUOUS
100
AcDbLine
 10
655.2532498311002
 20
666.0941846787141
 30
0.0
 11
655.2532498311002
 21
666.0941846787141
 31
0.0
  0
ARC
  5
6F
330
2
100
AcDbEntity
  8
OUTLINE
  6
CONTINUOUS
100
AcDbCircle
 10
655.0267711805608
 20
665.9837244429682
 30
0.0
 40
0.2519802430148454
100
AcDbArc
 50
25.99984003899789
 51
115.2151195508023
  0
ARC
  5
70
330
2
100
AcDbEntity
  8
OUTLINE
  6
CONTINUOUS
100
AcDbCircle
 10
655.0267711785449
 20
665.9837243373377
 30
0.0
 40
0.2519802913950386
100
AcDbArc
 50
295.2150714950029
 51
25.99981831610219
  0
ARC
  5
71
330
2
100
AcDbEntity
  8
OUTLINE
  6
CONTINUOUS
100
AcDbCircle
 10
596.8956849255159
 20
646.7127939190969
 30
0.0
 40
70.5544482889112
100
AcDbArc
 50
350.8080548766964
 51
0.2294691164981074
  0
LINE
  5
72
330
2
100
AcDbEntity
  8
OUTLINE
  6
CONTINUOUS
100
AcDbLine
 10
667.4495673697675
 20
646.9953631375092
 30
0.0
 11
667.4495673697675
 21
653.9263452041625
 31
0.0
  0
LWPOLYLINE
  5
73
330
2
100
AcDbEntity
  8
OUTLINE
  6
CONTINUOUS
100
AcDbPolyline
 90
       37
 70
     0
 43
0.0
 10
627.9350017247292
 20
704.1075557245607
 10
627.8821107510939
 20
704.1047516025209
 10
626.4547176324184
 20
704.0269474883274
 10
625.0295476291738
 20
703.9449062231132
 10
623.6069769638857
 20
703.8582832250007
 10
622.5981013361165
 20
703.7937035241392
 10
621.5906001952776
 20
703.7260887212937
 10
620.584398898392
 20
703.6548924988577
 10
619.3817638999621
 20
703.5645044251033
 10
618.1808377992115
 20
703.4690165798724
 10
617.5810523914537
 20
703.4196128223348
 10
616.9816982612672
 20
703.369232365862
 10
615.8722051331522
 20
703.273483097048
 10
614.7640000647842
 20
703.1744685873166
 10
613.6571860612233
 20
703.0719664498527
 10
612.6679795989192
 20
702.9771014427615
 10
611.6793310312
 20
702.8790442387643
 10
610.6912679408224
 20
702.7776339991199
 10
609.2319761501703
 20
702.6212457953387
 10
607.774150656332
 20
702.4565816866092
 10
606.7493529284056
 20
702.3354306501887
 10
605.7258471213693
 20
702.2096936326852
 10
604.7036832667936
 20
702.0791279163145
 10
603.9379611157774
 20
701.9778865860352
 10
603.1730195106383
 20
701.8736847935244
 10
601.8228104289132
 20
701.6819135177996
 10
600.4751406328255
 20
701.4799031644407
 10
599.3753408493307
 20
701.3067259632374
 10
598.2772424803092
 20
701.1261205804744
 10
597.180882325348
 20
700.9379549531412
 10
596.0998296651005
 20
700.744591981158
 10
595.0204258848867
 20
700.5437363646356
 10
593.942730151264
 20
700.3354250543497
 10
592.5934789469664
 20
700.0636301234902
 10
591.2471769516669
 20
699.7801063985408
 10
590.575225848926
 20
699.6339374687677
 10
589.9041222147707
 20
699.4848251751295
  0
ARC
  5
74
330
2
100
AcDbEntity
  8
OUTLINE
  6
CONTINUOUS
100
AcDbCircle
 10
533.7486146677966
 20
1303.504693942419
 30
0.0
 40
604.7524139049532
100
AcDbArc
 50
270.0
 51
281.6690318140988
  0
LWPOLYLINE
  5
75
330
2
100
AcDbEntity
  8
OUTLINE
  6
CONTINUOUS
100
AcDbPolyline
 90
       72
 70
     0
 43
0.0
 10
589.9036927014634
 20
699.4848207967224
 10
589.5291653337443
 20
699.3935594504026
 10
589.1784175042302
 20
699.307898547665
 10
588.5260616783047
 20
699.1476283752445
 10
587.2921871807728
 20
698.8383045907321
 10
586.670177451193
 20
698.6781649432345
 10
586.0250833918644
 20
698.5091976783873
 10
584.7008548794279
 20
698.154263288618
 10
583.8403975882727
 20
697.9182316806833
 10
582.9833862058031
 20
697.6785912284417
 10
582.124156211695
 20
697.4333284821086
 10
581.2782261366773
 20
697.1866723612173
 10
580.4271115083288
 20
696.9332861434268
 10
579.583808601972
 20
696.6767374357814
 10
578.7368714113909
 20
696.4117712361336
 10
578.174340279128
 20
696.2305534855109
 10
577.61022635982
 20
696.0435418560067
 10
577.0450483334839
 20
695.849791430844
 10
576.4544477388798
 20
695.6392337213519
 10
575.8637117547245
 20
695.4189292583293
 10
575.2751874630344
 20
695.1882147198958
 10
574.6876332567068
 20
694.9448591985864
 10
574.2166434570199
 20
694.7389971867798
 10
573.7471478187188
 20
694.5229193924018
 10
573.2804262107841
 20
694.2960012295793
 10
572.8161711424168
 20
694.0567436118222
 10
572.4161780996772
 20
693.8384290350112
 10
572.0189500607697
 20
693.6091072425965
 10
571.6261390407644
 20
693.3686168721193
 10
571.2372045417891
 20
693.1154089986367
 10
570.8761445918383
 20
692.8652465434088
 10
570.5198018933515
 20
692.6023022125064
 10
570.2867420573247
 20
692.4207367929462
 10
570.0563232694301
 20
692.2330277452187
 10
569.8288530990867
 20
692.0390176450132
 10
569.6181530437788
 20
691.8509100477057
 10
569.4105393605572
 20
691.6569590850299
 10
569.2063008707091
 20
691.4570869059976
 10
568.9569836013279
 20
691.1996713341472
 10
568.7138737897147
 20
690.9328861827662
 10
568.6682219306667
 20
690.8808974328067
 10
568.6228608220663
 20
690.8286136813934
 10
568.4385315194813
 20
690.6094247059691
 10
568.2594423364918
 20
690.3853682210868
 10
568.0857561756575
 20
690.1565445696859
 10
567.8921323296093
 20
689.8865614927812
 10
567.7061697298483
 20
689.6107309772992
 10
567.6161175678379
 20
689.4707178009797
 10
567.5280457808971
 20
689.3293560614488
 10
567.3589951231109
 20
689.0446395764597
 10
567.1979064908687
 20
688.7551021423043
 10
567.1203638425907
 20
688.6086329815825
 10
567.0448271201721
 20
688.4610830779014
 10
566.9240720486195
 20
688.2142980197636
 10
566.808814580081
 20
687.9648156437001
 10
566.699038623707
 20
687.7128075703827
 10
566.5473195770427
 20
687.3374369080782
 10
566.4073612420907
 20
686.9573203713794
 10
566.2771174955024
 20
686.5665381433253
 10
566.1589819932927
 20
686.1715908253386
 10
566.0851499586701
 20
685.8990710668607
 10
566.0170875350209
 20
685.6247283781844
 10
565.9548796392608
 20
685.3485427355549
 10
565.8825290629984
 20
684.9844545673163
 10
565.8209501843344
 20
684.6179966461022
 10
565.7852281377767
 20
684.3654400506534
 10
565.7549499954447
 20
684.111282916256
 10
565.7302015567875
 20
683.85463388583
 10
565.707619049786
 20
683.5329745696135
 10
565.6957386148351
 20
683.2146308984127
 10
565.6943690207548
 20
682.9314165623795
 10
565.6956373929893
 20
682.6304388159528
  0
SPLINE
  5
76
330
2
100
AcDbEntity
  8
OUTLINE
  6
CONTINUOUS
100
AcDbSpline
210
0.0
220
0.0
230
1.0
 70
    15
 71
     3
 72
    46
 73
    42
 74
     0
 42
0.0000000001
 43
0.0000000001
 40
0.0
 40
0.0
 40
0.0
 40
0.0
 40
0.0456752016340552
 40
0.0456752016340552
 40
0.0456752016340552
 40
0.1737276384391772
 40
0.1737276384391772
 40
0.1737276384391772
 40
0.2180303383312227
 40
0.2593297662858839
 40
0.3017800752444298
 40
0.3017800752444298
 40
0.3017800752444298
 40
0.3442303842029228
 40
0.3855298121574747
 40
0.4298325120494639
 40
0.4298325120494639
 40
0.4298325120494639
 40
0.4741352119415094
 40
0.5154346398962197
 40
0.5578849488548647
 40
0.5578849488548647
 40
0.5578849488548647
 40
0.6003352578133577
 40
0.6416346857679023
 40
0.6859373856598907
 40
0.6859373856598907
 40
0.6859373856598907
 40
0.8139898224650126
 40
0.8139898224650126
 40
0.8139898224650126
 40
0.8780160408675733
 40
0.8780160408675733
 40
0.8780160408675733
 40
0.9420422592700925
 40
0.9420422592700925
 40
0.9420422592700925
 40
0.9870888666050563
 40
0.9870888666050563
 40
0.9870888666050563
 40
1.0
 40
1.0
 40
1.0
 40
1.0
 10
643.2678788112633
 20
682.6774774908431
 30
0.0
 41
1.0
 10
643.267878811265
 20
682.2427968585635
 30
0.0
 41
0.9600568399204451
 10
643.1011641896446
 20
681.857083499984
 30
0.0
 41
0.986882803952448
 10
642.8110593026548
 20
681.5881966900485
 30
0.0
 41
1.080477892096006
 10
642.8110593026548
 20
681.9512902903119
 30
0.0
 41
1.080477892096006
 10
642.8110593026548
 20
682.3143838905792
 30
0.0
 41
1.080477892096006
 10
642.8110593026548
 20
682.6774774908439
 30
0.0
 41
1.080477892096006
 10
642.8167219355238
 20
682.470590733355
 30
0.0
 41
1.080477892096006
 10
642.7060294863568
 20
682.1761978389964
 30
0.0
 41
1.080477892096006
 10
642.5055864027298
 20
682.0156198966194
 30
0.0
 41
1.080477892096006
 10
642.2453095627948
 20
681.8936996070362
 30
0.0
 41
1.080477892096006
 10
642.0133306946832
 20
681.8933902520718
 30
0.0
 41
1.080477892096006
 10
641.7813518265711
 20
681.8936996070362
 30
0.0
 41
1.080477892096006
 10
641.5210749866363
 20
682.0156198966188
 30
0.0
 41
1.080477892096006
 10
641.3206319030092
 20
682.1761978389964
 30
0.0
 41
1.080477892096006
 10
641.2099394538412
 20
682.470590733355
 30
0.0
 41
1.080477892096006
 10
641.2156020867105
 20
682.6774774908439
 30
0.0
 41
1.080477892096006
 10
641.2099394538412
 20
682.8843642483321
 30
0.0
 41
1.080477892096006
 10
641.3206319030092
 20
683.1787571426921
 30
0.0
 41
1.080477892096006
 10
641.5210749866363
 20
683.3393350850688
 30
0.0
 41
1.080477892096006
 10
641.7813518265711
 20
683.4612553746496
 30
0.0
 41
1.080477892096006
 10
642.0133306946827
 20
683.4615647296171
 30
0.0
 41
1.080477892096006
 10
642.2453095627948
 20
683.4612553746496
 30
0.0
 41
1.080477892096006
 10
642.5055864027293
 20
683.3393350850688
 30
0.0
 41
1.080477892096006
 10
642.7060294863568
 20
683.1787571426911
 30
0.0
 41
1.080477892096006
 10
642.8167219355238
 20
682.8843642483321
 30
0.0
 41
1.080477892096006
 10
642.8110593026357
 20
682.6774774908634
 30
0.0
 41
1.080477892096006
 10
642.8110593026357
 20
682.314383890597
 30
0.0
 41
1.080477892096006
 10
642.8110593026357
 20
681.9512902903339
 30
0.0
 41
1.080477892096006
 10
642.8110593026357
 20
681.5881966900677
 30
0.0
 41
1.080477892096006
 10
642.0746961875782
 20
680.9056906799233
 30
0.0
 41
0.7746432529499301
 10
641.1548039103909
 20
681.1904821531632
 30
0.0
 41
0.7746432529499301
 10
640.8325227184727
 20
682.2007361826102
 30
0.0
 41
1.080477892096006
 10
640.5102415265554
 20
683.2109902120572
 30
0.0
 41
0.7746432529499301
 10
641.0592413008588
 20
684.0888345206357
 30
0.0
 41
0.7746432529499301
 10
642.0133306946832
 20
684.0888345206357
 30
0.0
 41
1.080477892096006
 10
642.5611044369182
 20
684.0888345206345
 30
0.0
 41
0.9492789189004847
 10
643.0091065599695
 20
683.7342384847581
 30
0.0
 41
0.9492789189004847
 10
643.1941386708936
 20
683.1542187990764
 30
0.0
 41
1.080477892096006
 10
643.2424124586995
 20
683.0028950796949
 30
0.0
 41
1.042874007044044
 10
643.2678788112618
 20
682.8424959970077
 30
0.0
 41
1.016048043012041
 10
643.2678788112633
 20
682.6774774908431
 30
0.0
 41
1.0
  0
SPLINE
  5
77
330
2
100
AcDbEntity
  8
OUTLINE
  6
CONTINUOUS
100
AcDbSpline
210
0.0
220
0.0
230
1.0
 70
    11
 71
     3
 72
    52
 73
    48
 74
     0
 42
0.0000000001
 43
0.0000000001
 40
0.0
 40
0.0
 40
0.0
 40
0.0
 40
0.0255005563572058
 40
0.0503097607167484
 40
0.0769230769231928
 40
0.0769230769231928
 40
0.0769230769231928
 40
0.1538461538463642
 40
0.1538461538463642
 40
0.1538461538463642
 40
0.2307692307695357
 40
0.2307692307695357
 40
0.2307692307695357
 40
0.3076923076927069
 40
0.3076923076927069
 40
0.3076923076927069
 40
0.3846153846158785
 40
0.3846153846158785
 40
0.3846153846158785
 40
0.46153846153905
 40
0.46153846153905
 40
0.46153846153905
 40
0.4881517777454907
 40
0.5129609821049919
 40
0.53846153846205
 40
0.53846153846205
 40
0.53846153846205
 40
0.5650551493326375
 40
0.5909277741296815
 40
0.6153846153851738
 40
0.6153846153851738
 40
0.6153846153851738
 40
0.6923076923083453
 40
0.6923076923083453
 40
0.6923076923083453
 40
0.7692307692315167
 40
0.7692307692315167
 40
0.7692307692315167
 40
0.8461538461546879
 40
0.8461538461546879
 40
0.8461538461546879
 40
0.9230769230778591
 40
0.9230769230778591
 40
0.9230769230778591
 40
0.9319002514125532
 40
0.9654822155377974
 40
1.0
 40
1.0
 40
1.0
 40
1.0
 10
642.4423250074442
 20
684.4649862750515
 30
0.0
 10
642.6515206206422
 20
684.465316760054
 30
0.0
 10
642.8862349874052
 20
684.5955646358906
 30
0.0
 10
643.0669920284754
 20
684.7671106186989
 30
0.0
 10
643.1668130810066
 20
685.0816115871812
 30
0.0
 10
643.1617065902083
 20
685.3026294406786
 30
0.0
 10
643.1617065902083
 20
685.6739008066192
 30
0.0
 10
643.1617065902083
 20
686.0451721725602
 30
0.0
 10
643.1617065902083
 20
686.4164435385008
 30
0.0
 10
642.3961226598581
 20
686.4164435385008
 30
0.0
 10
641.6305387295087
 20
686.4164435385008
 30
0.0
 10
640.8649547991577
 20
686.4164435385008
 30
0.0
 10
640.8649547991577
 20
686.2131616617821
 30
0.0
 10
640.8649547991577
 20
686.0098797850627
 30
0.0
 10
640.8649547991577
 20
685.8065979083435
 30
0.0
 10
641.4841901003518
 20
685.8065979083435
 30
0.0
 10
642.1034254015452
 20
685.8065979083435
 30
0.0
 10
642.7226607027387
 20
685.8065979083435
 30
0.0
 10
642.7226607027387
 20
685.6749087508287
 30
0.0
 10
642.7226607027387
 20
685.5432195933131
 30
0.0
 10
642.7226607027387
 20
685.4115304357982
 30
0.0
 10
642.7252535333372
 20
685.3189542955242
 30
0.0
 10
642.6745692004622
 20
685.187221563016
 30
0.0
 10
642.5827894625557
 20
685.1153673452836
 30
0.0
 10
642.4636127879594
 20
685.0608113651542
 30
0.0
 10
642.3573933099397
 20
685.0606729373057
 30
0.0
 10
642.2511738319208
 20
685.0608113651542
 30
0.0
 10
642.1319971573232
 20
685.1153673452836
 30
0.0
 10
642.0439897637302
 20
685.1842682003678
 30
0.0
 10
641.995806054932
 20
685.3030715858331
 30
0.0
 10
641.9923787354194
 20
685.379565629135
 30
0.0
 10
641.9923787354058
 20
685.4963542862742
 30
0.0
 10
641.9923787354058
 20
685.6131429434134
 30
0.0
 10
641.9923787354058
 20
685.7299316005527
 30
0.0
 10
641.6165707566561
 20
685.4488218053184
 30
0.0
 10
641.240762777908
 20
685.1677120100838
 30
0.0
 10
640.8649547991577
 20
684.8866022148508
 30
0.0
 10
640.8649547991577
 20
684.6345289499098
 30
0.0
 10
640.8649547991577
 20
684.3824556849702
 30
0.0
 10
640.8649547991577
 20
684.1303824200307
 30
0.0
 10
641.172122195695
 20
684.3867792705614
 30
0.0
 10
641.4792895922313
 20
684.6431761210928
 30
0.0
 10
641.7864569887679
 20
684.8995729716242
 30
0.0
 10
641.7990622746081
 20
684.8663246234896
 30
0.0
 10
641.8648779194517
 20
684.7222969297076
 30
0.0
 10
641.9984150274825
 20
684.5955646358906
 30
0.0
 10
642.2331293942455
 20
684.465316760054
 30
0.0
 10
642.4423250074442
 20
684.4649862750515
 30
0.0
  0
SPLINE
  5
78
330
2
100
AcDbEntity
  8
OUTLINE
  6
CONTINUOUS
100
AcDbSpline
210
0.0
220
0.0
230
1.0
 70
    15
 71
     3
 72
    49
 73
    45
 74
     0
 42
0.0000000001
 43
0.0000000001
 40
0.0
 40
0.0
 40
0.0
 40
0.0
 40
0.0833333333442848
 40
0.0833333333442848
 40
0.0833333333442848
 40
0.1666666666885696
 40
0.1666666666885696
 40
0.1666666666885696
 40
0.2500000000328544
 40
0.2500000000328544
 40
0.2500000000328544
 40
0.3333333333771392
 40
0.3333333333771392
 40
0.3333333333771392
 40
0.3621644259378702
 40
0.3890410639975015
 40
0.4166666667213676
 40
0.4166666667213676
 40
0.4166666667213676
 40
0.4442922694452707
 40
0.47116890750495
 40
0.500000000065742
 40
0.500000000065742
 40
0.500000000065742
 40
0.5833333334100268
 40
0.5833333334100268
 40
0.5833333334100268
 40
0.6666666667543116
 40
0.6666666667543116
 40
0.6666666667543116
 40
0.7500000000985964
 40
0.7500000000985964
 40
0.7500000000985964
 40
0.7788310926593273
 40
0.8057077307189926
 40
0.8333333334428958
 40
0.8333333334428958
 40
0.8333333334428958
 40
0.8609632122219728
 40
0.8878377872013349
 40
0.9166666666557151
 40
0.9166666666557151
 40
0.9166666666557151
 40
1.0
 40
1.0
 40
1.0
 40
1.0
 10
641.0724260081551
 20
686.9147745391432
 30
0.0
 41
1.0
 10
641.3860609036651
 20
686.9147745391432
 30
0.0
 41
1.0
 10
641.6996957991746
 20
686.9147745391432
 30
0.0
 41
1.0
 10
642.0133306946836
 20
686.9147745391432
 30
0.0
 41
1.0
 10
642.0133306946836
 20
687.1192180265861
 30
0.0
 41
1.0
 10
642.0133306946836
 20
687.3236615140289
 30
0.0
 41
1.0
 10
642.0133306946836
 20
687.5281050014723
 30
0.0
 41
1.0
 10
641.788517787987
 20
687.5281050014723
 30
0.0
 41
1.0
 10
641.5637048812908
 20
687.5281050014723
 30
0.0
 41
1.0
 10
641.3388919745939
 20
687.5281050014723
 30
0.0
 41
1.0
 10
641.2605101294206
 20
687.6882730082379
 30
0.0
 41
0.9827783042352079
 10
641.2203233234063
 20
687.8620041933093
 30
0.0
 41
0.9827783042352079
 10
641.2204078113933
 20
688.0403227198434
 30
0.0
 41
1.0
 10
641.2147791601122
 20
688.2104434911394
 30
0.0
 41
1.0
 10
641.3248047872968
 20
688.4525196241996
 30
0.0
 41
1.0
 10
641.5240403824677
 20
688.5845611513232
 30
0.0
 41
1.0
 10
641.7827492896317
 20
688.6848149033993
 30
0.0
 41
1.0
 10
642.0133306946836
 20
688.6850692826848
 30
0.0
 41
1.0
 10
642.243912099734
 20
688.6847420271712
 30
0.0
 41
1.0
 10
642.5026210068972
 20
688.5557669299072
 30
0.0
 41
1.0
 10
642.7018566020698
 20
688.3858972896067
 30
0.0
 41
1.0
 10
642.8118822292543
 20
688.074469615725
 30
0.0
 41
1.0
 10
642.8062537086303
 20
687.8556115424612
 30
0.0
 41
1.0
 10
642.8062404091756
 20
687.5464921544288
 30
0.0
 41
0.972058195946033
 10
642.717672253967
 20
687.2503326060146
 30
0.0
 41
0.972058195946033
 10
642.5479735036629
 20
686.991958593428
 30
0.0
 41
1.0
 10
642.6985438028
 20
686.991958593428
 30
0.0
 41
1.0
 10
642.849114101937
 20
686.991958593428
 30
0.0
 41
1.0
 10
642.9996844010737
 20
686.991958593428
 30
0.0
 41
1.0
 10
643.1513437817624
 20
687.3061310129558
 30
0.0
 41
0.9832158747900171
 10
643.2291318798742
 20
687.6462102518619
 30
0.0
 41
0.9832158747900171
 10
643.2291318798746
 20
687.9950725125641
 30
0.0
 41
1.0
 10
643.2377613063226
 20
688.3444820039512
 30
0.0
 41
1.0
 10
643.0690743420655
 20
688.8416799528895
 30
0.0
 41
1.0
 10
642.7636141635465
 20
689.1128788341289
 30
0.0
 41
1.0
 10
642.3669718421856
 20
689.3187890958106
 30
0.0
 41
1.0
 10
642.0134535007982
 20
689.3193115630906
 30
0.0
 41
1.0
 10
641.6597826604747
 20
689.3188374330128
 30
0.0
 41
1.0
 10
641.2630706745972
 20
689.1128996528232
 30
0.0
 41
0.9999999999999998
 10
640.9575870473007
 20
688.8416799528895
 30
0.0
 41
1.0
 10
640.7889000830432
 20
688.3444820039512
 30
0.0
 41
1.0
 10
640.7975295094907
 20
687.9950725125641
 30
0.0
 41
1.0
 10
640.7975295094916
 20
687.6156862412634
 30
0.0
 41
0.9794107581954939
 10
640.8910879735522
 20
687.2480168834766
 30
0.0
 41
0.9794107581954939
 10
641.0724260081551
 20
686.9147745391432
 30
0.0
 41
1.0
  0
SPLINE
  5
79
330
2
100
AcDbEntity
  8
OUTLINE
  6
CONTINUOUS
100
AcDbSpline
210
0.0
220
0.0
230
1.0
 70
    12
 71
     3
 72
    38
 73
    34
 74
     0
 42
0.0000000001
 43
0.0000000001
 40
0.0
 40
0.0
 40
0.0
 40
0.0
 40
0.0681306463906685
 40
0.1150978388163351
 40
0.1425950644138429
 40
0.1763896918026827
 40
0.210272846095681
 40
0.2362837702832605
 40
0.2747124447958416
 40
0.3064164251774089
 40
0.3523338389162175
 40
0.3784508033197434
 40
0.4075922293365278
 40
0.4455774665351287
 40
0.4972971447999191
 40
0.5364217970238174
 40
0.5629985236761442
 40
0.5924293489699845
 40
0.6275164808483098
 40
0.6588903138446956
 40
0.6863763670242986
 40
0.7080574666919403
 40
0.7458666255656186
 40
0.7704298196150022
 40
0.7945719727572469
 40
0.8155162446510576
 40
0.848071866045865
 40
0.8728330080287628
 40
0.905338484246924
 40
0.9280078264663915
 40
0.9578569677637236
 40
0.9982948508055532
 40
1.0
 40
1.0
 40
1.0
 40
1.0
 10
660.9690877281927
 20
710.3735586998086
 30
0.0
 41
1.0
 10
660.8716523869695
 20
710.3086527725247
 30
0.0
 41
0.9999999999999994
 10
660.6921502348264
 20
710.1923136513096
 30
0.0
 41
1.0
 10
660.4365406915376
 20
710.0345828702052
 30
0.0
 41
1.0
 10
660.2255285896493
 20
709.9083502958018
 30
0.0
 41
1.0
 10
660.0274667367994
 20
709.7927641207519
 30
0.0
 41
1.0
 10
659.8185081768206
 20
709.674109897137
 30
0.0
 41
1.0
 10
659.5859180923253
 20
709.5452085931468
 30
0.0
 41
1.0
 10
659.3442401220741
 20
709.4146784110326
 30
0.0
 41
1.0
 10
659.033417748014
 20
709.2515286788357
 30
0.0
 41
1.0
 10
658.7363114524813
 20
709.1003920235484
 30
0.0
 41
1.0
 10
658.4288119738407
 20
708.9486065539645
 30
0.0
 41
1.0
 10
658.1327472582202
 20
708.8057855236708
 30
0.0
 41
1.0
 10
657.7355863921748
 20
708.6195172885805
 30
0.0
 41
1.0
 10
657.2761923305461
 20
708.4121450137289
 30
0.0
 41
1.0
 10
656.8306328896368
 20
708.2189745860508
 30
0.0
 41
1.0
 10
656.4539806433398
 20
708.0604870146357
 30
0.0
 41
1.0
 10
656.0805393193827
 20
707.9073465535989
 30
0.0
 41
1.0
 10
655.6720298675377
 20
707.7448240701605
 30
0.0
 41
1.0
 10
655.2564267432306
 20
707.5846920154527
 30
0.0
 41
1.0
 10
654.8885842234413
 20
707.447065353203
 30
0.0
 41
1.0
 10
654.4811313481232
 20
707.2984926041008
 30
0.0
 41
1.0
 10
654.0755635241676
 20
707.1552646013707
 30
0.0
 41
1.0
 10
653.6458162256981
 20
707.008852690652
 30
0.0
 41
1.0
 10
653.2922546430844
 20
706.8918631611722
 30
0.0
 41
1.0
 10
652.8904851277275
 20
706.7626237562643
 30
0.0
 41
1.0
 10
652.4765407274407
 20
706.6340255030056
 30
0.0
 41
1.0
 10
651.9908534735044
 20
706.4890280786721
 30
0.0
 41
1.0
 10
651.5494127363248
 20
706.3626672305104
 30
0.0
 41
1.0
 10
651.0709043859892
 20
706.2314611233132
 30
0.0
 41
1.0
 10
650.5386398655555
 20
706.0913867457692
 30
0.0
 41
1.0
 10
650.1171709528383
 20
705.9865690488671
 30
0.0
 41
1.0
 10
649.8673152839598
 20
705.9265505637886
 30
0.0
 41
1.0
 10
649.8572007457327
 20
705.924124351829
 30
0.0
 41
1.0
  0
SPLINE
  5
7A
330
2
100
AcDbEntity
  8
OUTLINE
  6
CONTINUOUS
100
AcDbSpline
210
0.0
220
0.0
230
1.0
 70
    12
 71
     3
 72
    65
 73
    61
 74
     0
 42
0.0000000001
 43
0.0000000001
 40
0.0
 40
0.0
 40
0.0
 40
0.0
 40
0.0142057182527741
 40
0.0284388404067403
 40
0.0425999813058316
 40
0.0565993130275727
 40
0.06935067069146
 40
0.0857723301822367
 40
0.1063090463077295
 40
0.1240664012839728
 40
0.1371109569003261
 40
0.1496123261072003
 40
0.1650351794877506
 40
0.1819006002948559
 40
0.1968717587062863
 40
0.2145038323489621
 40
0.2313378780342885
 40
0.2474839684343797
 40
0.265479746494353
 40
0.2809093332855857
 40
0.3016917097228302
 40
0.3154406368930275
 40
0.3303347158142118
 40
0.3427457869978997
 40
0.355823565911705
 40
0.3699937059792377
 40
0.39447132773613
 40
0.4107761298830642
 40
0.4324799846796909
 40
0.4517135181307027
 40
0.4687060411437562
 40
0.4858804080873747
 40
0.5013395252761104
 40
0.5170903808535802
 40
0.5343196652633587
 40
0.5562130538081873
 40
0.5746793959190502
 40
0.60123687986657
 40
0.6166129272416993
 40
0.6440512485048476
 40
0.6603968216198635
 40
0.6747328760364556
 40
0.6993839101612016
 40
0.7167708335928219
 40
0.7407268965226858
 40
0.7547193820405745
 40
0.769063599900845
 40
0.7949714776383967
 40
0.8154323303401621
 40
0.8328191105841892
 40
0.8455035806573413
 40
0.8687312187084991
 40
0.8892609663336171
 40
0.9005617962337662
 40
0.9181446856168864
 40
0.9303456292178735
 40
0.9465336663252518
 40
0.960908830011572
 40
0.9817567573842703
 40
1.0
 40
1.0
 40
1.0
 40
1.0
 10
670.0702935978097
 20
682.6255489998075
 30
0.0
 41
1.0
 10
670.0697980193295
 20
682.8203591409024
 30
0.0
 41
1.0
 10
670.0685703341019
 20
683.1489753041974
 30
0.0
 41
1.0
 10
670.0566314368319
 20
683.6902625873281
 30
0.0
 41
1.0
 10
670.0366294734508
 20
684.2152382988156
 30
0.0
 41
1.0
 10
670.0085194293555
 20
684.7244796867689
 30
0.0
 41
1.0
 10
669.9697961150317
 20
685.2598218851635
 30
0.0
 41
1.0
 10
669.9133411057482
 20
685.8747945983409
 30
0.0
 41
1.0
 10
669.833935134096
 20
686.5485516313573
 30
0.0
 41
1.0
 10
669.7418546391345
 20
687.1768793289692
 30
0.0
 41
1.0
 10
669.6518654842683
 20
687.7036942316157
 30
0.0
 41
1.0
 10
669.556862925142
 20
688.1993214395232
 30
0.0
 41
1.0
 10
669.4410099378109
 20
688.7374825322956
 30
0.0
 41
1.0
 10
669.3039047404091
 20
689.3002593237219
 30
0.0
 41
1.0
 10
669.1448574388287
 20
689.8834723724056
 30
0.0
 41
1.0
 10
668.9699035197032
 20
690.4597755516554
 30
0.0
 41
1.0
 10
668.7734196039132
 20
691.0419693858274
 30
0.0
 41
1.0
 10
668.5588296893447
 20
691.6202077525261
 30
0.0
 41
1.0
 10
668.3334456886314
 20
692.1737722053949
 30
0.0
 41
1.0
 10
668.0693462750191
 20
692.7690752563283
 30
0.0
 41
1.0
 10
667.8085470398436
 20
693.3072876088931
 30
0.0
 41
1.0
 10
667.5345909372339
 20
693.8292126118291
 30
0.0
 41
1.0
 10
667.296240816192
 20
694.2553077807856
 30
0.0
 41
1.0
 10
667.051916917785
 20
694.6672343485156
 30
0.0
 41
1.0
 10
666.8031143434988
 20
695.0650489016403
 30
0.0
 41
1.0
 10
666.4665703211357
 20
695.574317164072
 30
0.0
 41
1.0
 10
666.0913457340242
 20
696.100727778265
 30
0.0
 41
1.0
 10
665.6446533756496
 20
696.6811754809667
 30
0.0
 41
1.0
 10
665.2189065749649
 20
697.1973481326918
 30
0.0
 41
1.0
 10
664.7709546720269
 20
697.7024996107602
 30
0.0
 41
1.0
 10
664.3446988204532
 20
698.1540197627777
 30
0.0
 41
1.0
 10
663.9373421517206
 20
698.5611866819513
 30
0.0
 41
1.0
 10
663.5301297758627
 20
698.9465350515334
 30
0.0
 41
1.0
 10
663.1131492357898
 20
699.3211606162725
 30
0.0
 41
1.0
 10
662.629996600538
 20
699.7321449828688
 30
0.0
 41
1.0
 10
662.109946273545
 20
700.1467506278936
 30
0.0
 41
1.0
 10
661.4905760985857
 20
700.6082401119036
 30
0.0
 41
1.0
 10
660.916909581832
 20
701.0045651105447
 30
0.0
 41
1.0
 10
660.2436136731552
 20
701.4383909513876
 30
0.0
 41
1.0
 10
659.6572256796831
 20
701.7899938129794
 30
0.0
 41
1.0
 10
659.0697689689327
 20
702.1171865046608
 30
0.0
 41
1.0
 10
658.5031089431545
 20
702.4166436596192
 30
0.0
 41
1.0
 10
657.9164640495926
 20
702.706268154779
 30
0.0
 41
1.0
 10
657.2184927763182
 20
703.0258901674097
 30
0.0
 41
1.0
 10
656.6241216712251
 20
703.2779428088514
 30
0.0
 41
1.0
 10
656.0547398379867
 20
703.5022310428399
 30
0.0
 41
1.0
 10
655.4581660543752
 20
703.7240767439612
 30
0.0
 41
1.0
 10
654.7809910645272
 20
703.9550577189343
 30
0.0
 41
1.0
 10
654.0585646545252
 20
704.1761575764012
 30
0.0
 41
1.0
 10
653.4786340554037
 20
704.3371920256022
 30
0.0
 41
0.9999999999999998
 10
652.8608832419681
 20
704.4948730500673
 30
0.0
 41
0.9999999999999998
 10
652.1990332635441
 20
704.6462434029288
 30
0.0
 41
1.0
 10
651.5447872499171
 20
704.7749010634255
 30
0.0
 41
1.0
 10
650.9524456181492
 20
704.8778580988941
 30
0.0
 41
1.0
 10
650.4562274033937
 20
704.954051221097
 30
0.0
 41
1.0
 10
649.8971949694887
 20
705.0285953870152
 30
0.0
 41
0.9999999999999996
 10
649.3743784829103
 20
705.0886101156442
 30
0.0
 41
1.0
 10
648.741664119294
 20
705.149208089274
 30
0.0
 41
1.0
 10
648.0849709188082
 20
705.1985759044505
 30
0.0
 41
1.0
 10
647.5911874121461
 20
705.2255380302199
 30
0.0
 41
1.0
 10
647.3696839044388
 20
705.2354486137432
 30
0.0
 41
1.0
  0
SPLINE
  5
7B
330
2
100
AcDbEntity
  8
OUTLINE
  6
CONTINUOUS
100
AcDbSpline
210
0.0
220
0.0
230
1.0
 70
    12
 71
     3
 72
     8
 73
     4
 74
     0
 42
0.0000000001
 43
0.0000000001
 40
0.0
 40
0.0
 40
0.0
 40
0.0
 40
1.0
 40
1.0
 40
1.0
 40
1.0
 10
646.9990322372882
 20
705.321305282579
 30
0.0
 41
1.0
 10
646.9394018766958
 20
705.3110394527744
 30
0.0
 41
1.0
 10
646.880172658883
 20
705.3008733736105
 30
0.0
 41
1.0
 10
646.8213222494396
 20
705.2908034150032
 30
0.0
 41
1.0
  0
SPLINE
  5
7C
330
2
100
AcDbEntity
  8
OUTLINE
  6
CONTINUOUS
100
AcDbSpline
210
0.0
220
0.0
230
1.0
 70
    12
 71
     3
 72
     8
 73
     4
 74
     0
 42
0.0000000001
 43
0.0000000001
 40
0.0
 40
0.0
 40
0.0
 40
0.0
 40
1.0
 40
1.0
 40
1.0
 40
1.0
 10
647.0518738125534
 20
705.3263306791727
 30
0.0
 41
0.9958186890422664
 10
647.1553873448565
 20
705.3278462367201
 30
0.0
 41
0.989194417049793
 10
647.2621849267476
 20
705.2972573185675
 30
0.0
 41
0.9905881873690375
 10
647.3696839040071
 20
705.2354339532302
 30
0.0
 41
1.0
  0
LWPOLYLINE
  5
7D
330
2
100
AcDbEntity
  8
OUTLINE
  6
CONTINUOUS
100
AcDbPolyline
 90
       19
 70
     0
 43
0.0
 10
635.9600006823316
 20
704.5216001678664
 10
636.5582478563632
 20
704.5538115867474
 10
637.1318853316173
 20
704.5839240555432
 10
637.6830019701027
 20
704.6123182586419
 10
638.2132842271362
 20
704.6393044602369
 10
638.7240850794113
 20
704.6651346231656
 10
639.2164853222997
 20
704.690012377644
 10
639.4156186325722
 20
704.7000958460312
 10
639.8772431013163
 20
704.7235933321457
 10
640.3218473810316
 20
704.7465124866733
 10
640.7492883816529
 20
704.7689600540586
 10
641.1595148996002
 20
704.7910188539362
 10
641.5525549087037
 20
704.8127514096417
 10
641.9285033014707
 20
704.8342033594208
 10
642.2742345847288
 20
704.8546086577458
 10
642.6044472574313
 20
704.8748019496303
 10
642.9193306220009
 20
704.8947934380533
 10
643.2190842253658
 20
704.9145864140773
 10
643.3992839789139
 20
704.9268877643684
  0
LWPOLYLINE
  5
7E
330
2
100
AcDbEntity
  8
OUTLINE
  6
CONTINUOUS
100
AcDbPolyline
 90
       15
 70
     0
 43
0.0
 10
627.9350015969253
 20
704.1075557181106
 10
628.6101549592484
 20
704.1423828931688
 10
629.2483264955063
 20
704.1734298447466
 10
629.8493361777582
 20
704.2015409567892
 10
630.4149721633421
 20
704.2275283319618
 10
630.9481295343016
 20
704.2521013061408
 10
631.4522561099375
 20
704.2758516827821
 10
631.6871232824196
 20
704.2872101369752
 10
631.9164725846185
 20
704.29854030448
 10
632.3607574151606
 20
704.3212365956474
 10
632.7862840768534
 20
704.343792048848
 10
633.586509556801
 20
704.3878346286629
 10
634.338463264858
 20
704.4303786989212
 10
635.0356768740297
 20
704.4700337536087
 10
635.6836897108117
 20
704.5063943469513
  0
LWPOLYLINE
  5
7F
330
2
100
AcDbEntity
  8
OUTLINE
  6
CONTINUOUS
100
AcDbPolyline
 90
        3
 70
     0
 43
0.0
 10
635.6837386610849
 20
704.5063970586611
 10
635.85835409738
 20
704.5160307638084
 10
635.9598556018241
 20
704.5215922399656
  0
ARC
  5
80
330
2
100
AcDbEntity
  8
OUTLINE
  6
CONTINUOUS
100
AcDbCircle
 10
647.1903647184124
 20
682.6255489995973
 30
0.0
 40
17.6386120722278
100
AcDbArc
 50
64.83040289029746
 51
79.16959710090067
  0
ARC
  5
81
330
2
100
AcDbEntity
  8
OUTLINE
  6
CONTINUOUS
100
AcDbCircle
 10
647.1903647184124
 20
682.6255489995973
 30
0.0
 40
17.13465172730701
100
AcDbArc
 50
64.83040290680178
 51
79.16959709479931
  0
ARC
  5
82
330
2
100
AcDbEntity
  8
OUTLINE
  6
CONTINUOUS
100
AcDbCircle
 10
647.1903647184124
 20
682.6255489995973
 30
0.0
 40
18.64653276206939
100
AcDbArc
 50
64.78489898210314
 51
79.21510410489772
  0
ARC
  5
83
330
2
100
AcDbEntity
  8
OUTLINE
  6
CONTINUOUS
100
AcDbCircle
 10
647.1903647184124
 20
682.6255489995973
 30
0.0
 40
18.14257241714859
100
AcDbArc
 50
64.78489868079856
 51
79.21510321389814
  0
ARC
  5
84
330
2
100
AcDbEntity
  8
OUTLINE
  6
CONTINUOUS
100
AcDbCircle
 10
650.4573567215219
 20
699.7024851884892
 30
0.0
 40
0.2519802047138592
100
AcDbArc
 50
79.16958813849695
 51
169.9998852999032
  0
ARC
  5
85
330
2
100
AcDbEntity
  8
OUTLINE
  6
CONTINUOUS
100
AcDbCircle
 10
650.4573567227314
 20
699.7024851880865
 30
0.0
 40
0.2519802055201958
100
AcDbArc
 50
169.9998852870984
 51
259.1696062672024
  0
ARC
  5
86
330
2
100
AcDbEntity
  8
OUTLINE
  6
CONTINUOUS
100
AcDbCircle
 10
650.6323972705422
 20
700.6951918235102
 30
0.0
 40
0.2519797672762798
100
AcDbArc
 50
79.21518847720278
 51
169.9999090574982
  0
ARC
  5
87
330
2
100
AcDbEntity
  8
OUTLINE
  6
CONTINUOUS
100
AcDbCircle
 10
650.6323973455313
 20
700.6951914251799
 30
0.0
 40
0.2519802002790082
100
AcDbArc
 50
169.9999944071008
 51
259.2150501873994
  0
LWPOLYLINE
  5
88
330
2
100
AcDbEntity
  8
OUTLINE
  6
CONTINUOUS
100
AcDbPolyline
 90
       19
 70
     0
 43
0.0
 10
643.3981479910149
 20
704.9268091816307
 10
643.8375911838102
 20
704.9583132139521
 10
644.244575158003
 20
704.9898067759941
 10
644.4369314268648
 20
705.0056251788515
 10
644.6223724550845
 20
705.0215259933361
 10
644.8012563343057
 20
705.0375328152745
 10
644.9739250318607
 20
705.0536679132632
 10
645.1407061893022
 20
705.0699526213547
 10
645.3019146407369
 20
705.0864076547383
 10
645.5345826492089
 20
705.1114079336683
 10
645.7460171690662
 20
705.1355446608243
 10
645.9391090152221
 20
705.1590193796232
 10
646.1164810944454
 20
705.1820150635525
 10
646.280506169363
 20
705.2046897868307
 10
646.342064250591
 20
705.2136586674905
 10
646.4100839142129
 20
705.2239207805477
 10
646.4848984646827
 20
705.2355341810224
 10
646.6434836763304
 20
705.2610187690691
 10
646.8213222494713
 20
705.2908034148863
  0
LINE
  5
89
330
2
100
AcDbEntity
  8
OUTLINE
  6
CONTINUOUS
100
AcDbLine
 10
646.9987971220911
 20
705.3226663830868
 30
0.0
 11
646.9988621414421
 21
705.3226744649983
 31
0.0
  0
ARC
  5
8A
330
2
100
AcDbEntity
  8
OUTLINE
  6
CONTINUOUS
100
AcDbCircle
 10
654.5848834732822
 20
698.3613694075731
 30
0.0
 40
0.2519796749507447
100
AcDbArc
 50
244.8303969787976
 51
333.9998870061995
  0
ARC
  5
8B
330
2
100
AcDbEntity
  8
OUTLINE
  6
CONTINUOUS
100
AcDbCircle
 10
654.5848834740885
 20
698.3613694035414
 30
0.0
 40
0.2519806731953959
100
AcDbArc
 50
333.9998862472025
 51
64.83040823819971
  0
ARC
  5
8C
330
2
100
AcDbEntity
  8
OUTLINE
  6
CONTINUOUS
100
AcDbCircle
 10
655.0267711805608
 20
699.2673735562269
 30
0.0
 40
0.2519802430148454
100
AcDbArc
 50
244.7848804491015
 51
334.0001599611973
  0
ARC
  5
8D
330
2
100
AcDbEntity
  8
OUTLINE
  6
CONTINUOUS
100
AcDbCircle
 10
655.0267711785449
 20
699.2673736622601
 30
0.0
 40
0.2519802913950386
100
AcDbArc
 50
334.0001816838017
 51
64.78492850499712
  0
POINT
  5
AF
330
2
100
AcDbEntity
  8
OUTLINE
 62
     5
100
AcDbPoint
 10
661.9765684603416
 20
682.6255490000006
 30
0.0
  0
ENDSEC
  0
SECTION
  2
OBJECTS
  0
DICTIONARY
  5
A
330
0
100
AcDbDictionary
  3
ACAD_COLOR
350
33
  3
ACAD_GROUP
350
2F
  3
ACAD_LAYOUT
350
F
  3
ACAD_MATERIAL
350
32
  3
ACAD_MLINESTYLE
350
30
  3
ACAD_PLOTSETTINGS
350
31
  3
ACAD_PLOTSTYLENAME
350
9
  3
ACAD_TABLESTYLE
350
34
  3
ACDBVARIABLEDICTIONARY
350
8F
  3
ACDBHEADERROUNDTRIPXREC
350
C3
  0
DICTIONARY
  5
18
330
17
100
AcDbDictionary
280
     1
  3
ACAD_LAYERFILTERS
360
19
  3
ACLYDICTIONARY
360
1A
  0
DICTIONARY
  5
3
330
2
100
AcDbDictionary
280
     1
  3
ACAD_LAYOUTSELFREF
360
E4
  3
ACAD_SORTENTS
360
8E
  0
DICTIONARY
  5
12
330
11
100
AcDbDictionary
280
     1
  3
ACAD_LAYOUTSELFREF
360
E5
  0
DICTIONARY
  5
33
102
{ACAD_REACTORS
330
A
102
}
330
A
100
AcDbDictionary
  0
DICTIONARY
  5
2F
102
{ACAD_REACTORS
330
A
102
}
330
A
100
AcDbDictionary
  0
DICTIONARY
  5
F
102
{ACAD_REACTORS
330
A
102
}
330
A
100
AcDbDictionary
  0
DICTIONARY
  5
32
102
{ACAD_REACTORS
330
A
102
}
330
A
100
AcDbDictionary
  0
DICTIONARY
  5
30
102
{ACAD_REACTORS
330
A
102
}
330
A
100
AcDbDictionary
  3
STANDARD
350
38
  0
DICTIONARY
  5
31
102
{ACAD_REACTORS
330
A
102
}
330
A
100
AcDbDictionary
  0
ACDBDICTIONARYWDFLT
  5
9
102
{ACAD_REACTORS
330
A
102
}
330
A
100
AcDbDictionary
281
     1
  3
Normal
350
8
100
AcDbDictionaryWithDefault
340
8
1001
ACAD
1000
TREAT_AS_HARD
1070
     0
  0
DICTIONARY
  5
34
102
{ACAD_REACTORS
330
A
102
}
330
A
100
AcDbDictionary
  3
STANDARD
350
39
  0
DICTIONARY
  5
8F
102
{ACAD_REACTORS
330
A
102
}
330
A
100
AcDbDictionary
  3
CTABLESTYLE
350
90
  3
DIMASSOC
350
A8
  3
HIDETEXT
350
A7
  3
PROJECTNAME
350
A9
  0
DICTIONARY
  5
C3
102
{ACAD_REACTORS
330
A
102
}
330
A
100
AcDbDictionary
  3
TSTACKALIGN
350
C4
  3
TSTACKSIZE
350
C5
  3
HYPERLINKBASE
350
C6
  3
STYLESHEET
350
C7
  3
LAYOUTDICT
350
C8
  3
PLOTSETDICT
350
C9
  3
PLOTSTYLNAMDICT
350
CA
  3
LWETCUNION
350
CB
  3
INSUNITS
350
CC
  3
CEPSNTYPE
350
CD
  3
FINGERPRINTGUID
350
CE
  3
VERSIONGUID
350
CF
  3
PSVPSCALE
350
D0
  3
DIMSTYLEDATA
350
D1
  3
PUCSORTHOREF
350
D2
  3
PUCSORTHOVIEW
350
D3
  3
PUCSBASE
350
D4
  3
PUCSORGTOP
350
D5
  3
PUCSORGBOTTOM
350
D6
  3
PUCSORGLEFT
350
D7
  3
PUCSORGRIGHT
350
D8
  3
PUCSORGFRONT
350
D9
  3
PUCSORGBACK
350
DA
  3
UCSORTHOREF
350
DB
  3
UCSORTHOVIEW
350
DC
  3
UCSBASE
350
DD
  3
UCSORGTOP
350
DE
  3
UCSORGBOTTOM
350
DF
  3
UCSORGLEFT
350
E0
  3
UCSORGRIGHT
350
E1
  3
UCSORGFRONT
350
E2
  3
UCSORGBACK
350
E3
  0
DICTIONARY
  5
19
102
{ACAD_REACTORS
330
18
102
}
330
18
100
AcDbDictionary
  0
DICTIONARY
  5
1A
102
{ACAD_REACTORS
330
18
102
}
330
18
100
AcDbDictionary
1001
ACAD
1000
<All
  0
XRECORD
  5
E4
102
{ACAD_REACTORS
330
3
102
}
330
3
100
AcDbXrecord
340
2
  0
SORTENTSTABLE
  5
8E
102
{ACAD_REACTORS
330
3
102
}
330
3
100
AcDbSortentsTable
330
2
  0
XRECORD
  5
E5
102
{ACAD_REACTORS
330
12
102
}
330
12
100
AcDbXrecord
340
11
  0
MLINESTYLE
  5
38
102
{ACAD_REACTORS
330
30
102
}
330
30
100
AcDbMlineStyle
  2
STANDARD
 70
     0
  3

 62
   256
 51
90.0
 52
90.0
 71
     2
 49
0.5
 62
   256
  6
BYLAYER
 49
-0.5
 62
   256
  6
BYLAYER
  0
ACDBPLACEHOLDER
  5
8
102
{ACAD_REACTORS
330
9
102
}
330
9
100
AcDbPlaceHolder
280
     0
  0
ACAD_PROXY_OBJECT
  5
39
102
{ACAD_REACTORS
330
34
102
}
330
34
100
AcDbProxyObject
 90
      499
 91
      506
 93
     1841
310
4214DD185B99185C9928B81E85EB51B8AE3F2E07A17AD46E2B8FC02B5E8DC0F42B1CFD028000000C1008070000C3001FDFF8000000C1003FBFF000000182007F7FE00000030400FEFFC00000060801FDFF8000000C1003FBFF00000018200000000000000681FA0B0000001820100E000186003FBFF000000182007F7FE000
310
00030400FEFFC00000060801FDFF8000000C1003FBFF000000182007F7FE000000304000AD7A3703D0AC73F4160000003040201C00030C007F7FE00000030400FEFFC00000060801FDFF8000000C1003FBFF000000182007F7FE00000030400FEFFC000000608016
340
1C
340
1C
340
1C
 94
        0
1001
ACAD
1000
AcadProxyRoundTripData
1071
      503
1071
   393239
1070
     0
  0
DICTIONARYVAR
  5
90
102
{ACAD_REACTORS
330
8F
102
}
330
8F
100
DictionaryVariables
280
     0
  1
STANDARD
  0
DICTIONARYVAR
  5
A8
102
{ACAD_REACTORS
330
8F
102
}
330
8F
100
DictionaryVariables
280
     0
  1
1
  0
DICTIONARYVAR
  5
A7
102
{ACAD_REACTORS
330
8F
102
}
330
8F
100
DictionaryVariables
280
     0
  1
1
  0
DICTIONARYVAR
  5
A9
102
{ACAD_REACTORS
330
8F
102
}
330
8F
100
DictionaryVariables
280
     0
  1

  0
XRECORD
  5
C4
102
{ACAD_REACTORS
330
C3
102
}
330
C3
100
AcDbXrecord
 90
        1
  0
XRECORD
  5
C5
102
{ACAD_REACTORS
330
C3
102
}
330
C3
100
AcDbXrecord
 90
       70
  0
XRECORD
  5
C6
102
{ACAD_REACTORS
330
C3
102
}
330
C3
100
AcDbXrecord
  1

  0
XRECORD
  5
C7
102
{ACAD_REACTORS
330
C3
102
}
330
C3
100
AcDbXrecord
  1

  0
XRECORD
  5
C8
102
{ACAD_REACTORS
330
C3
102
}
330
C3
100
AcDbXrecord
340
F
  0
XRECORD
  5
C9
102
{ACAD_REACTORS
330
C3
102
}
330
C3
100
AcDbXrecord
340
31
  0
XRECORD
  5
CA
102
{ACAD_REACTORS
330
C3
102
}
330
C3
100
AcDbXrecord
340
9
  0
XRECORD
  5
CB
102
{ACAD_REACTORS
330
C3
102
}
330
C3
100
AcDbXrecord
 90
    10781
  0
XRECORD
  5
CC
102
{ACAD_REACTORS
330
C3
102
}
330
C3
100
AcDbXrecord
 90
        0
  0
XRECORD
  5
CD
102
{ACAD_REACTORS
330
C3
102
}
330
C3
100
AcDbXrecord
 90
        0
  0
XRECORD
  5
CE
102
{ACAD_REACTORS
330
C3
102
}
330
C3
100
AcDbXrecord
  1
{0C9E04BF-4C7E-4230-8078-EA6802034811}
  0
XRECORD
  5
CF
102
{ACAD_REACTORS
330
C3
102
}
330
C3
100
AcDbXrecord
  1
{3E25F099-1E00-4FA2-B862-A1BDF6EDA6E6}
  0
XRECORD
  5
D0
102
{ACAD_REACTORS
330
C3
102
}
330
C3
100
AcDbXrecord
 40
0.0
  0
XRECORD
  5
D1
102
{ACAD_REACTORS
330
C3
102
}
330
C3
100
AcDbXrecord
1000
DSTYLE
1002
{
1070
    79
 70
     2
1070
   341
340
28
1070
   342
340
28
1002
}
  0
XRECORD
  5
D2
102
{ACAD_REACTORS
330
C3
102
}
330
C3
100
AcDbXrecord
340
0
  0
XRECORD
  5
D3
102
{ACAD_REACTORS
330
C3
102
}
330
C3
100
AcDbXrecord
 70
     0
  0
XRECORD
  5
D4
102
{ACAD_REACTORS
330
C3
102
}
330
C3
100
AcDbXrecord
340
0
  0
XRECORD
  5
D5
102
{ACAD_REACTORS
330
C3
102
}
330
C3
100
AcDbXrecord
 10
0.0
 20
0.0
 30
0.0
  0
XRECORD
  5
D6
102
{ACAD_REACTORS
330
C3
102
}
330
C3
100
AcDbXrecord
 10
0.0
 20
0.0
 30
0.0
  0
XRECORD
  5
D7
102
{ACAD_REACTORS
330
C3
102
}
330
C3
100
AcDbXrecord
 10
0.0
 20
0.0
 30
0.0
  0
XRECORD
  5
D8
102
{ACAD_REACTORS
330
C3
102
}
330
C3
100
AcDbXrecord
 10
0.0
 20
0.0
 30
0.0
  0
XRECORD
  5
D9
102
{ACAD_REACTORS
330
C3
102
}
330
C3
100
AcDbXrecord
 10
0.0
 20
0.0
 30
0.0
  0
XRECORD
  5
DA
102
{ACAD_REACTORS
330
C3
102
}
330
C3
100
AcDbXrecord
 10
0.0
 20
0.0
 30
0.0
  0
XRECORD
  5
DB
102
{ACAD_REACTORS
330
C3
102
}
330
C3
100
AcDbXrecord
340
0
  0
XRECORD
  5
DC
102
{ACAD_REACTORS
330
C3
102
}
330
C3
100
AcDbXrecord
 70
     0
  0
XRECORD
  5
DD
102
{ACAD_REACTORS
330
C3
102
}
330
C3
100
AcDbXrecord
340
0
  0
XRECORD
  5
DE
102
{ACAD_REACTORS
330
C3
102
}
330
C3
100
AcDbXrecord
 10
0.0
 20
0.0
 30
0.0
  0
XRECORD
  5
DF
102
{ACAD_REACTORS
330
C3
102
}
330
C3
100
AcDbXrecord
 10
0.0
 20
0.0
 30
0.0
  0
XRECORD
  5
E0
102
{ACAD_REACTORS
330
C3
102
}
330
C3
100
AcDbXrecord
 10
0.0
 20
0.0
 30
0.0
  0
XRECORD
  5
E1
102
{ACAD_REACTORS
330
C3
102
}
330
C3
100
AcDbXrecord
 10
0.0
 20
0.0
 30
0.0
  0
XRECORD
  5
E2
102
{ACAD_REACTORS
330
C3
102
}
330
C3
100
AcDbXrecord
 10
0.0
 20
0.0
 30
0.0
  0
XRECORD
  5
E3
102
{ACAD_REACTORS
330
C3
102
}
330
C3
100
AcDbXrecord
 10
0.0
 20
0.0
 30
0.0
  0
ENDSEC
  0
EOF
